top separator

Home

Forum

What's New

Submit a Tab

FAQ

Links

Contact Us

Link to Us

MuSpy.com

MetalTabs.com logo

Bands

0-9

A

B

C

D

E

F

G

H

I

J

K

L

M

N

O

P

Q

R

S

T

U

V

W

X

Y

Z

Search

What

Where
 

Neurosis - "Distill (Watching the Swarm)" Guitar Tab

Plain Text Version
More Neurosis Tabs

Hits: 3785
Rated: 4.00 out of 5 (1 vote)
Updated: 2008-01-17 02:57:06

 

By:

TomS

sendpm.gif

email.gif

Important note
This tab is available online because we obtained explicit permission from Neurosis or their label.


#----------------------------------PLEASE NOTE---------------------------------#
#This file is the author's own work and represents their interpretation of the #
#song. You may only use this file for private study, scholarship, or research. #
#Unless specified otherwise, this is NOT an official tab from the band members.#
#------------------------------------------------------------------------------#

  Visit MetalTabs.com for more metal tablature
  
Band:  Neurosis
Album: Given to the Rising
Song: Distill (Watching The Swarm)

Copyright (c)  Neurot Recordings 2007
Version 1.0 - 09/01/'08

Transcribed By: Tom "Vahmpy" Sibren
Email:          tsibrenlava@hotmail.com


.  - palm mute           /  - slide up to
\  - slide down to       ~  - vibrato
h  - hammer on           b  - Bend
p  - pull off            Suffixes for bend
t  - tap                 f  - full bend    h - half bend
ph - pinched harmonic    q  - quarter bend t - tap bend
*  - see comment         ^  - Hold bend    r release bend
x  - Stuccatto           ~  - vibrato bend
,  - slight palm mute    () - ghost note, sustained note
"  - tremolo note        <> - Trill

Tuning = drop D (D A D G B e)

Intro Riff *play the 5's with a little swing and shifting accents.
------------------------|
6-------------------(6)-|
7--------------------8--|
7--------------------7--|
5---5-5-5-5--5-5-5-5-5--|
------------------------|
soft pm , ,  , , , , ,

Riff 1a
------------------------|
6-6~-----6-6~-----------|
8-8~-----8-8~-----------| gtr.1
7-7~-(7)-7-7~-(7)-------|
5-5~-(5)-5-5~-(5)-------|
------0--------0--------|
                        |
------------------------|
------------------------|
------------------------| gtr.2
1-0--(0)-1-0--(0)-------|
1-0--(0)-1-0--(0)-------|
1-0--(0)-1-0--(0)-------|

Riff 1b (Steve plays a little something else than Scott here,
but I'm not totally sure what kind of chords Steve plays).
----------------------------------------------------|
----------------------------------------------------|
----------------------------------------------------|
12--\0--7----12--\0--7------------------12--\0--7---|
12--\0--5----12--\0--5-----6--6--6~~----12--\0--5---|
12--\0-------12--\0---------------------12--\0------|

Back to Riff 1a
Riff 1b

Clean break
--------------------------------------------------------|
---------------------------------10---------------------|
9-h10--p9--7----9-h10--p9--7----------9---10-(/12)--9---|
--------------------------------------------------------|
--------------------------------------------------------|
--------------------------------------------------------|

Back to Riff 1a but this time gtr.2 (Scott) plays:
------------------------|
------------------------|
------------------------| gtr.2
1-0--(0)-4-0--(0)-------|
1-0--(0)-4-0--(0)-------|
1-0--(0)-4-0--(0)-------|

Then to Riff 1b but with a little change:
Repeat 4x
------------|
------------|
------------|
12--\0--8---|
12--\0--8---|
12--\0--8---|

Soundscape / break

Clean guitar before Closing Riff:
------------------------------------------------|
------6-----------6-----------6-----------6-----|
---9-----9-----9-----9-----9-----9-----9-----9--|
0-----------8-----------7-----------0-----------|
------------------------------------------------|
------------------------------------------------|

Closing Riff
----------------------------------------------------|
6-------------6--------------6----------------------|
9-------------9--------------7----------------------| gtr.1
8-------------8--------------7----------------------|
-------0-------------0-------5----------------------|
-------0-------------0--------------2---3---p2--0---|
                                                    |
----------------------------------------------------|
----------------------------------------------------|
-----------------------------14---------------------| gtr.2
2------0------2------0------/12-----2---3-----------|
2------0------2------0------/12-----2---3-----------|
2-h3p2-0------2-h3p2-0------/12-----2q--3---p2--0---|

Ending chord:
--------------|
--------------|
--------------|
0~~-----------|
0~~-----------|
0~~-----------|

  Visit MetalTabs.com for more metal tablature

bottom separator

Contact Us | Privacy Policy | Disclaimer | Legal Notice
Copyright © 2001-2014 MetalTabs.com. All Rights Reserved.