top separator

Home

Forum

What's New

Submit a Tab

FAQ

Links

Contact Us

Link to Us

MetalTabs.com logo

Bands

0-9

A

B

C

D

E

F

G

H

I

J

K

L

M

N

O

P

Q

R

S

T

U

V

W

X

Y

Z

Search

What

Where
 

Neurosis - "Given to the Rising" Guitar Tab

Plain Text Version
More Neurosis Tabs

Hits: 8426
Rated: 4.00 out of 5 (1 vote)
Updated: 2008-01-17 02:54:54

 

By:

TomS

sendpm.gif

email.gif

Important note
This tab is available online because we obtained explicit permission from Neurosis or their label.


#----------------------------------PLEASE NOTE---------------------------------#
#This file is the author's own work and represents their interpretation of the #
#song. You may only use this file for private study, scholarship, or research. #
#Unless specified otherwise, this is NOT an official tab from the band members.#
#------------------------------------------------------------------------------#

  Visit MetalTabs.com for more metal tablature
  
Band:  Neurosis
Album: Given to the Rising
Song:  Given to the Rising

Copyright (c)  Neurot Recordings 2007
Version 1.0 - 09/01/'08

Transcribed By: Tom "Vahmpy" Sibren
Email:          tsibrenlava@hotmail.com


.  - palm mute           /  - slide up to
\  - slide down to       ~  - vibrato
h  - hammer on           b  - Bend
p  - pull off            Suffixes for bend
t  - tap                 f  - full bend    h - half bend
ph - pinched harmonic    q  - quarter bend t - tap bend
*  - see comment         ^  - Hold bend    r release bend
x  - Stuccatto           ~  - vibrato bend
,  - slight palm mute    () - ghost note, sustained note
"  - tremolo note        <> - Trill

Tuning = drop D (D A D G B e)
*I'm not totally sure about the tuning. I play it in drop D, but somewhere
in the song there's a little riff that also goes to a drop A tuned string.
Maybe one of the guitars is tuned to drop A and the other to drop D...
I really don't know. I'm pretty sure the bassguitar is tuned to drop A but
sometimes the guitars do that too.

Intro Riff
------------------------------|--------------------------------------||
------------------------------|--------------------------------------||
------------------------------|--------------------------------------||
7--7\5-5-/-8-8--8-8-8--8-8-8--|\7--7\5-5-/-8-8--2-1--1-1-1--1-1-1----||
7--7\5-5-/-8-8--8-8-8--8-8-8--|\7--7\5-5-/-8-8--2-1--1-1-1--1-1-1----||
7--7\5-5-/-8-8--8-8-8--8-8-8--|\7--7\5-5-/-8-8--2-1--1-1-1--1-1-1----||

Chorus Riff
--------------------------------|
--------------------------------|
----5~--------------------------|
----------------------------0---|
-------------2^ bend---0~~------|
3-------------------------------|

clean interlude riff (not totally sure, just improvise a little)
---------------------|---------------|
---------------------|---------------|
---------------------|---------------|
-7-777-9-999--7---2--|-7-777-7---2---|
-0-000-0-000--0---0--|-0-000-0---0---|
---------------------|---------------|
soft pm. ...           . ...

Back to:
1. Intro Riff
2. Chorus Riff

Riff 3 (after 2nd chorus riff)
-------------------------------------------------------------|
-------------------------------------------------------------|
-5-----7--2--4--5-----7--2--4--5----7--2--4--10---9--7-------|
-------------------------------------------------------------| gtr.1
-------------------------------------------------------------|
-------------------------------------------------------------|
                                                             |
-------------------------------------------------------------|
-------------------------------------------------------------|
-------------------------------------------------------------| gtr.2
-------------------------------------------------------------|
-------------------------------------------------------------|
-3---3333333333--2--3--2-2^ bend-----------------------------|
pm   ..........                     (drop A?)-00000000000000-|
                                              ..............

Soundscape / bridge part:
guitar keeps ringing on the B string, with some kind of phaser effect.
B-5-5-5-5-5-5-5-5-5-5-5-etc.---|

Closing Riff:
Constantly go to A) after you played B), C) and then D).
The riff begins with A).
A)
------------------------|
------------------------|
------------------------|
7/9--9-99-9/12--12-1212-|
7/9--9-99-9/12--12-1212-|
7/9--9-99-9/12--12-1212-|

B) *the number of notes written aren't equal to the ones you need to play!
-------------------------------------------------------------|
-------------------------------------------------------------|
-444444444444/77777777\444444444/55555555\22222222-----------| gtr.1
--------------------------------------------------2^ bend----|
-------------------------------------------------------------|
-------------------------------------------------------------|

C)
-------------------------------------------------------------|
-------------------------------------------------------------|
-444444444444/22222222\444444444/55555555\22222222-----------| gtr.1
--------------------------------------------------2^ bend----|
-------------------------------------------------------------|
-------------------------------------------------------------|

D) repeat 5x then: E)
------------------|-----------------------------------|----------|
------------------|-----------------------------------|----------|
-555555555555-4/5-|-55555555555555555555-4h5-55555555-|----------| gtr.1
------------------|-----------------------------------|A)--------|
------------------|-----------------------------------|A)--------|
------------------|-----------------------------------|A)--------|

Guitar 2:
------------------------|---------------------------------------------------|
------------------------|---------------------------------------------------|
------------------------| repeat 2 times  repeat 2 times     repeat 2 times-|
7/9--9-99-9/12--12-1212-|-9--9--9-9-9---/12--12--12-12-12---\7--7--7-7-7----|
7/9--9-99-9/12--12-1212-|-9--9--9-9-9---/12--12--12-12-12---\7--7--7-7-7----|
7/9--9-99-9/12--12-1212-|-9--9--9-9-9---/12--12--12-12-12---\7--7--7-7-7----|

Closing chord:
------------|
------------|
------------| both guitars
9~~~--------|
9~~~--------|
9~~~--------|

  Visit MetalTabs.com for more metal tablature

bottom separator

Contact Us | Privacy Policy | Disclaimer | Legal Notice
Copyright © 2001-2014 MetalTabs.com. All Rights Reserved.