top separator

Home

Forum

What's New

Submit a Tab

FAQ

Links

Contact Us

Link to Us

MetalTabs.com logo

Bands

0-9

A

B

C

D

E

F

G

H

I

J

K

L

M

N

O

P

Q

R

S

T

U

V

W

X

Y

Z

Search

What

Where
 

Neurosis - "Last You'll Know" Guitar Tab

Plain Text Version
More Neurosis Tabs

Hits: 3444
Rated: 4.67 out of 5 (3 votes)
Updated: 2008-01-17 02:57:00

 

By:

TomS

sendpm.gif

email.gif

Important note
This tab is available online because we obtained explicit permission from Neurosis or their label.


#----------------------------------PLEASE NOTE---------------------------------#
#This file is the author's own work and represents their interpretation of the #
#song. You may only use this file for private study, scholarship, or research. #
#Unless specified otherwise, this is NOT an official tab from the band members.#
#------------------------------------------------------------------------------#

  Visit MetalTabs.com for more metal tablature
  
Band:  Neurosis
Album: Times of Grace
Song:  The Last You'll Know

Copyright (c)  Neurot Recordings 1999
Version 1.0 - 10/01/'08

Transcribed By: Tom "Vahmpy" Sibren
Email:          tsibrenlava@hotmail.com


.  - palm mute           /  - slide up to
\  - slide down to       ~  - vibrato
h  - hammer on           b  - Bend
p  - pull off            Suffixes for bend
t  - tap                 f  - full bend    h - half bend
ph - pinched harmonic    q  - quarter bend t - tap bend
*  - see comment         ^  - Hold bend    r release bend
x  - Stuccatto           ~  - vibrato bend
,  - slight palm mute    () - ghost note, sustained note
"  - tremolo note        <> - Trill

Tuning = drop D (D A D G B e)

Intro 1 (8's and 7's are more than written, I play the high
10's and 9's to give the riff more feeling/atmosphere).
-------------------------------------------------------|----|
-------------------------------------------------------|----|
--------------(10101010)----------------(999999991010}-|----|
0---0-0---0----88888888---0---0-0---0----7777777788----|-0--|
0---0-0---0----88888888---0---0-0---0----7777777788----|-0--|
0---0-0---0----88888888---0---0-0---0----7777777788----|-0--|
                                .

Main Riff
---------------------------------|-------------------------|
---------------------------------|-------------------------|
---------------------------------|-------------------------|
5--5-5-5-----4--4-4-4-4-4--4-4-4-|-------------------------|
5--5-5-5--0--4--4-4-4-4-4--4-4-4-|-0--2--3--3-3--3--2--0---|
5--5-5-5--0--4--4-4-4-4-4--4-4-4-|-0--2--3--3-3--3--2--0---|
          ,                                 . .

Riff 2 (with the beautiful bagpipe)
--------------------------------------|
--------------------------------------|
(10101010)---(9--9-9-9-9-9--9-9-9)----|
-8--8-8-8-----7--7-7-7-7-7--7-7-7-----|
-8--8-8-8--0--7--7-7-7-7-7--7-7-7-----|
-8--8-8-8--0--7--7-7-7-7-7--7-7-7-----|
           ,

Bridge (let notes ring)
-------------------------------------|
-------------------------------------|
10--------9--------------------------|
-------------------------------------|
--------------------0-------(2)------|
--------------------3--------2-------|

Bridge continued
     1.___Repeat 4x_ 2.____________
----|---------------|--------------|
----|-----------0---|--------------|
11--|-10-10-10--10--|-\7-7-7-------|
----|---------------|--------------|
----|---------------|--------------|
----|---------------|--------------|

Riff 3 (last riff with vocals)
*The high notes could well be played by a
second guitar. But I just play them like this.
------------------------------------------|
------------------------------------------|
----11-10-11-1010--9--9--9-----13-13-13---|
8---8--8--8--8-8---7--7--7--/--11-11-11---|
8---8--8--8--8-8---7--7--7--/--11-11-11---|
8---8--8--8--8-8---7--7--7--/--11-11-11---|

Closing Riff
Repeat 4x      Repeat 4x
--------------|----------------|
--------------|----------------|
11"---10"-11"-|11"---10"-11"---| gtr.1
--------------|----------------|
--------------|----------------|
--------------|----------------|
              |                |
--------------|----------------|
--------------|----------------|
--------------|----------------| gtr.2
8"------------|7"--------------|
8"------------|7"--------------|
8"------------|7"--------------|

  Visit MetalTabs.com for more metal tablature

bottom separator

Contact Us | Privacy Policy | Disclaimer | Legal Notice
Copyright © 2001-2014 MetalTabs.com. All Rights Reserved.