top separator

Home

Forum

What's New

Submit a Tab

FAQ

Links

Contact Us

Link to Us

MetalTabs.com logo

Bands

0-9

A

B

C

D

E

F

G

H

I

J

K

L

M

N

O

P

Q

R

S

T

U

V

W

X

Y

Z

Search

What

Where
 

The Haunted - "Godpuppet" Guitar Tab

Plain Text Version
More The Haunted Tabs

Hits: 2281
Updated: 2008-01-12 00:59:46

 

By:

Ema

sendpm.gif

email.gif

Important note
This tab is available online because we obtained explicit permission from The Haunted or their label.


#----------------------------------PLEASE NOTE---------------------------------#
#This file is the author's own work and represents their interpretation of the #
#song. You may only use this file for private study, scholarship, or research. #
#Unless specified otherwise, this is NOT an official tab from the band members.#
#------------------------------------------------------------------------------#

  Visit MetalTabs.com for more metal tablature
  
GODPUPPET
 By THE HAUNTED
 As Performed On ONE KILL WONDER 2003
 CENTURY MEDIA Records

 Tabbed By Ema

 Tuning D


 RIFF 1 INTRO x1

|RIGHT GUITAR
|-------------------------------------------------------------------|
|-------------------------------------------------------------------|
|-------------------------------------------------------------------|
|-------------------------------------------------------------------|
|----------------------------------2--------------------------------|
|-00000000-3-0000-2-0000-3-00-2-00---000000-3-0000-2-0000-3-00-2-00-|
| ........ . .... . .... . .. . ..   ...... . .... . .... . .. . ..
|
|LEFT GUITAR
|-------------------------------------------------------------------|
|-------------------------------------------------------------------|
|-------------------------------------------------------------------|
|-------------------------------------------------------------------|
|-------------------------------------------------------------------|
|--------------------------------------------------------10\\\\\\\\-|



|-------------------------------------------------------------------|
|-------------------------------------------------------------------|
|-------------------------------------------------------------------|
|-------------------------------------------------------------------|
|----------------------------------5--------------------------------|
|-33333333-6-3333-5-3333-6-33-5-33---333333-6-3333-5-3333-6-33-5-33-|
  ........ . .... . .... . .. . ..   ...... . .... . .... . .. . ..


|-------------------------------------------------------------------|
|-------------------------------------------------------------------|
|-------------------------------------------------------------------|
|----------------------------7---6----------------------------7---6-|
|-5555-8-7-5555-8-7-5555-8-5---5---5555-8-7-5555-8-7-5555-8-5---5---|
|-------------------------------------------------------------------|
  .... . . .... . . .... . .   .   .... . . .... . . .... . .   .



 RIFF 2 VERSE x2

|---------------------------------|---------------------------------|
|---------------------------------|---------------------------------|
|---------------------------------|---------------------------------|
|---------------------------------|---------------------------------|
|-------3p2p0-3h5-----3p2p0-3h5p3-|-------3p2p0-3h5-----3p2p0-3h5p3-|
|-22222-----------222-------------|-22222-----------222-------------|
  .....           ...               .....           ...


|---------------------------------|---------------------------------|
|---------------------------------|---------------------------------|
|---------------------------------|---------------------------------|
|---------------4h5---------------|---------------4h5---------------|
|-------5p4-------------5p4---5h7-|-------5p4-------------5p4---5h7-|
|-33333-----333-----333-----3-----|-33333-----333-----333-----3-----|
  .....     ...     ...     .       .....     ...     ...     .



 RIFF 3 CHORUS x1

|---------------------------------------------------------------|
|---------------------------------------------------------------|
|---------------------------------------------------------------|
|---------------------------------------------------------------|
|-----------------------------------------------------5h7---8p7-|
|-000000-2-0---1-000000-2-0---1-000000-2-0---1-000000-----0-----|
  ...... . .   . ...... . .   . ...... . .   . ......     .

|RIGHT GUITAR
|---------------------------------------------------------------|
|---------------------------------------------------------------|
|---------------------------------------------------------------|
|---------------------------------------------------------------|
|----------------------------------------------2-2-----2-2------|
|-000000-2-0---1-000000-2-0---1-000000-2-0---1-0-0-----0-0------|
| ...... . .   . ...... . .   . ...... . .   . . .x    . .x
|
|LEFT GUITAR
|---------------------------------------------------------------|
|---------------------------------------------------------------|
|---------------------------------------------------------------|
|---------------------------------------------------------------|
|-777777-9-7---8-777777-9-7---8-777777-9-7---8-2-2-----2-2------|
|----------------------------------------------0-0-----0-0------|
  ...... . .   . ...... . .   . ...... . .   . . .x    . .x



 RIFF 2A VERSE x2

|---------------------------------|---------------------------------|
|---------------------------------|---------------------------------|
|---------------------------------|---------------------------------|
|---------------------------------|---------------------------------|
|-------3p2p0-3h5-----3p2p0-3h5p3-|-------3p2p0-3h5-----3p2p0-3h5p3-|
|-22222-----------222-------------|-22222-----------222-------------|
  .....           ...               .....           ...


|---------------------------------|---------------------------------|
|---------------------------------|---------------------------------|
|---------------------------------|---------------------------------|
|---------------4h5---------------|---------------4h5---------------|
|-------5p4-------------5p4---5h7-|-------5p4-------------5p4---5h7-|
|-33333-----333-----333-----3-----|-33333-----333-----333-----3-----|
  .....     ...     ...     .       .....     ...     ...     .


|---------------------------------|---------------------------------|
|---------------------------------|---------------------------------|
|---------------------------------|---------------------------------|
|---------------------------------|---------------------------------|
|-------3p2p0-3h5-----3p2p0-3h5p3-|-------3p2p0-3h5-----3p2p0-3h5p3-|
|-22222-----------222-------------|-22222-----------222-------------|
  .....           ...               .....           ...


|---------------------------------|---------------------------------|
|---------------------------------|---------------------------------|
|---------------------------------|---------------------------------|
|---------------4h5---------------|---------------4h5-----5----4----|
|-------5p4-------------5p4---5h7-|-------5p4-------------3----2----|
|-33333-----333-----333-----3-----|-33333-----333-----333-----------|
  .....     ...     ...     .       .....     ...     ...



 RIFF 3A CHORUS x1

|---------------------------------------------------------------|
|---------------------------------------------------------------|
|---------------------------------------------------------------|
|---------------------------------------------------------------|
|-----------------------------------------------------5h7---8p7-|
|-000000-2-0---1-000000-2-0---1-000000-2-0---1-000000-----0-----|
  ...... . .   . ...... . .   . ...... . .   . ......     .

|RIGHT GUITAR
|---------------------------------------------------------------|
|---------------------------------------------------------------|
|---------------------------------------------------------------|
|---------------------------------------------------------------|
|---------------------------------------------------5---7---8p7-|
|-000000-2-0---1-000000-2-0---1-000000-2-0---1-0000---0---0-----|
| ...... . .   . ...... . .   . ...... . .   . ....   .   .
|
|LEFT GUITAR
|---------------------------------------------------------------|
|---------------------------------------------------------------|
|---------------------------------------------------------------|
|---------------------------------------------------------------|
|-777777-9-7---8-777777-9-7---8-777777-9-7---8-7777-5---7---8p7-|
|-----------------------------------------------------0---0-----|
  ...... . .   . ...... . .   . ...... . .   . ....   .   .



 SOLO 1

|--------------------------------------------151515171717181818-22fb^^^\\\---|
|-15b^^^^^-----13----------151515171717181818--------------------------------|
|-----------------14b^^^-----------------------------------------------------|
|----------------------------------------------------------------------------|
|----------------------------------------------------------------------------|
|----------------------------------------------------------------------------|




 RIFF 1A x1 UNDER SOLO 1

|-------------------------------------------------------------------|
|-------------------------------------------------------------------|
|-------------------------------------------------------------------|
|----------------------------7---6----------------------------7---6-|
|-5555-8-7-5555-8-7-5555-8-5---5---5555-8-7-5555-8-7-5555-8-5---5---|
|-------------------------------------------------------------------|
  .... . . .... . . .... . .   .   .... . . .... . . .... . .   .



 RIFF 2B BREAK x1

|---------------------------------|---------------------------------|
|---------------------------------|---------------------------------|
|---------------------------------|---------------------------------|
|---------------------------------|---------------------------------|
|-------3p2p0-3h5-----3p2p0-3h5p3-|-------3p2p0-3h5-----3p2p0-3h5p3-|
|-22222-----------222-------------|-22222-----------222-------------|
  .....           ...               .....           ...



 SOLO 2
  N.H. BAR                BAR        N.H. BAR
|-------------------------------------------------------------------|
|------------------------------------5////////////\\\\\\------------|
|-6//////\/\/\/\\/\\-----------------5////////////\\\\\\------------|
|----------------------------------------------------------x\\\-----|
|----------------------------------------------------------x\\\-----|
|------------------------0//\\\\\\----------------------------------|




 RIFF 4 x1 UNDER SOLO 2

|-----------------------------------------------------------|
|-----------------------------------------------------------|
|-----------------------------------------------------------|
|-----------------------------------------------------------|
|--------5p4----------------5p4-7h8--------5p4--------------|
|-555555-----555-6p5-5555-6---------555555-----555-6p5-5555-|
  ......     ...     .... .         ......     ...     ....


|-----------------------------------------------------------|
|-----------------------------------------------------------|
|-----------------------------------------------------------|
|-----------------------------------------------------------|
|-------------------------------------------5-5-----5-5-----|
|-6-3333-5-3333-6-3333-5-3333-6-3333-5-3333-3-3-----3-3-----|
    ....   ....   ....   ....   ....   .... . .x    . .x



 RIFF 3B BREAK x1

|RIGHT GUITAR
|---------------------------------------------------------------|
|---------------------------------------------------------------|
|---------------------------------------------------------------|
|---------------------------------------------------------------|
|---------------------------------------------------5---7---8p7-|
|-000000-2-0---1-000000-2-0---1-000000-2-0---1-0000---0---0-----|
| ...... . .   . ...... . .   . ...... . .   . ....   .   .
|
|LEFT GUITAR
|---------------------------------------------------------------|
|---------------------------------------------------------------|
|---------------------------------------------------------------|
|---------------------------------------------------------------|
|-2-----------------------------2-------------------x\\\\\\\\\\-|
|-0-----------------------------0-------------------------------|
   x


|---------------------------------------------------------------|
|---------------------------------------------------------------|
|---------------------------------------------------------------|
|---------------------------------------------------------------|
|---------------------------------------------------5---7---8p7-|
|-000000-2-0---1-000000-2-0---1-000000-2-0---1-0000---0---0-----|
  ...... . .   . ...... . .   . ...... . .   . ....   .   .

|RIGHT GUITAR
|---------------------------------------------------------------|
|---------------------------------------------------------------|
|---------------------------------------------------------------|
|---------------------------------------------------------------|
|---------------------------------------------------5---7---8p7-|
|-000000-2-0---1-000000-2-0---1-000000-2-0---1-0000---0---0-----|
| ...... . .   . ...... . .   . ...... . .   . ....   .   .
|
|LEFT GUITAR
|---------------------------------------------------------------|
|---------------------------------------------------------------|
|---------------------------------------------------------------|
|---------------------------------------------------------------|
|-777777-9-7---8-777777-9-7---8-777777-9-7---8-7777-5---7---8p7-|
|-----------------------------------------------------0---0-----|
  ...... . .   . ...... . .   . ...... . .   . ....   .   .



 RIFF 5 BRIDGE x1

|RIGHT GUITAR
|---------------------------------|---------------------------------|
|---------------------------------|---------------------------------|
|---------------------------------|---------------------------------|
|---------------------------------|---------------------------------|
|-2-------2-------2-------2-------|-1-------1-------1-------1---2h3-|
|---5-3-5---5-3-5---5-3-5---5-3-5-|---4-2-4---4-2-4---4-2-4---2-----|
|
|
|LEFT GUITAR
|---------------------------------|---------------------------------|
|---------------------------------|---------------------------------|
|---------------------------------|-3-------------------------------|
|-2-------------------------------|-2-------------------------------|
|-2-------------------------------|-1-------------------------------|
|-0-------------------------------|---------------------------------|


|RIGHT GUITAR
|---------------------------------|---------------------------------|
|---------------------------------|---------------------------------|
|---------------------------------|---------------------------------|
|---------------------------------|---------------------------------|
|-2-------2-------2-------2-------|-1-------1-------1-------1---2h3-|
|---5-3-5---5-3-5---5-3-5---5-3-5-|---4-2-4---4-2-4---4-2-4---2-----|
|
|
|LEFT GUITAR
|---------------------------------|---------------------------------|
|---------------------------------|---------------------------------|
|-4-------------------------------|-3-------------------------------|
|-3-------------------------------|-2-------------------------------|
|-2-------------------------------|-1-------------------------------|
|---------------------------------|---------------------------------|



 RIFF 5A END CHORUS x2

|---------------------------------|---------------------------------|
|---------------------------------|---------------------------------|
|---------------------------------|---------------------------------|
|---------------------------------|---------------------------------|
|-------7-------6-------5---------|-------7-------6-------5---7h8p7-|
|-00000---8-000---7-000---6-1-1-1-|-00000---8-000---7-000---6-------|
  .....   . ...     ...     . . .   .....   . ...   . ...   .




 RIFF 6 OUTRO x1

|---------------------------------------------------------------|
|---------------------------------------------------------------|
|---------------------------------------------------------------|
|-9-----7/9-----6/8-----5/7-------------7/9-----6/8---------910-|
|-7-----5/7-----4/6-----3/5-----3---2---5/7-----4/6-----910-7/8-|
|---000-----000-----000-----000-1---0-------000-----000-7/8-----|
    ...     ...     ...     ... .x  .x      ...     ...


|---------------------------------------------------------------|
|---------------------------------------------------------------|
|---------------------------------------------------------------|
|-9-----7/9-----6/8-----5/7-------------4---2-------------------|
|-7-----5/7-----4/6-----3/5-----3---2---2---0---5-5-----5-5-----|
|---000-----000-----000-----000-1---0-----------3-3-----3-3-----|
    ...     ...     ...     ... .x  .x          . .x    . .x

  Visit MetalTabs.com for more metal tablature

bottom separator

Contact Us | Privacy Policy | Disclaimer | Legal Notice
Copyright © 2001-2014 MetalTabs.com. All Rights Reserved.