#----------------------------------PLEASE NOTE---------------------------------#
#This file is the author's own work and represents their interpretation of the #
#song. You may only use this file for private study, scholarship, or research. #
#Unless specified otherwise, this is NOT an official tab from the band members.#
#------------------------------------------------------------------------------#

  Visit MetalTabs.com for more metal tablature
  
Band   Belketre
Album: Twilight of the Black Holocaust (Studio Tracks 1994)
Song: The Dark Promise

Transcribed By: Elathen
Email:         ningalia87@yahoo.com

Copyright (c)  Embassy Productions
Version 1.0 - 1/4/2008

Tuning E A D G B E


. - palm mute / - slide up to
 - slide down to ~ - vibrato
h - hammer on p - pull off
, - slight palm mute () - ghost note, sustained note
" " tremolo note <> - Trill

Suffixes for bend
f - full bend h - half bend
ph - pinched harmonic q - quarter bend
t - tap bend * - see comment
^ - Hold bend r - release bend
x  Staccato ~ - vibrato bend


Intro Riff
|---------------------------------------------------------|
|---------------------------------------------------------|
|---------------------------------------------------------|
|---------------------------------------------------------|
|---------------------------------------------------------|
|---777777777---9999999999---77777777----101010101010-----|

Riff 2            x4                       x4
|--------------------|-----------------------|
|--------------------|-----------------------|
|--------------------|-----------------------|
|-5"--6"--5"---8"----|-----------------------|
|--------------------|---5"--7"-5"--8"-------|
|--------------------|-----------------------|

Riff 3                                           x3
|---------------------------------------------------|
|----------------------------------8----10----11----|
|-0--------2---3----5--7--9---11--------------------|
|-----5---------------------------------------------|
|---------------------------------------------------|
|---------------------------------------------------|

Riff 3b                   Play Twice
|------5------------[9^]-------------|
|-0--------7-------------------------|
|--------------7---------------------|
|------------------------------------|
|------------------------------------|
|------------------------------------|

Riff 3 - Gtr2
|------------------------|----------------------------|
|------------------------|----------------------------|
|------------------------|----------------------------|
|------------------------|----------------------------|
|2-2-2-2--3--0--0-0-0--1-|-2--2-2-2--1--0--0-0-0---2--|
|0-0-0-0--1--0--0-0-0--3-| 0--0-0-0--3--0--0-0-0---0--|
 . . . .  .  .  . . .  .   .  . . .  .  .  . . .   .

Play Riff 2 x 2

Play Riff 3 x 2

Play Riff 3b x 2

Riff 4                       Play 5 times
|-----------------------------------------|
|-----------------------------------------|
|-----------666666------------------------|
|--9999999-----------888888---------------|
|-----------------------------------------|
|-----------------------------------------|

Play Riff 3 x 2

Play Riff 3b x 2 - End

  Visit MetalTabs.com for more metal tablature