top separator

Home

Forum

What's New

Submit a Tab

FAQ

Links

Contact Us

Link to Us

MetalTabs.com logo

Bands

0-9

A

B

C

D

E

F

G

H

I

J

K

L

M

N

O

P

Q

R

S

T

U

V

W

X

Y

Z

Search

What

Where
 

Deaf Dealer - "Dead Zone" Guitar Tab

Plain Text Version
More Deaf Dealer Tabs

Hits: 1492
Updated: 2009-03-21 03:04:32

 

By:

nightstalker297

sendpm.gif

email.gif

Important note
We did our best to reach Deaf Dealer and ask for their permission to publish this tab. Unfortunately they did not respond to our requests or we could not find a way to contact them. This tab is available online until Deaf Dealer tells us to take it down.


#----------------------------------PLEASE NOTE---------------------------------#
#This file is the author's own work and represents their interpretation of the #
#song. You may only use this file for private study, scholarship, or research. #
#Unless specified otherwise, this is NOT an official tab from the band members.#
#------------------------------------------------------------------------------#

  Visit MetalTabs.com for more metal tablature
  
"DEAD ZONE"
     (From the album "Keeper of the Flame"  Polygram 1986)

Music & Lyrics: Deaf Dealer
Tuning: Standard E
                 B
                 G
                 D
                 A
                 E

Classic song by Deaf Dealer from their debut album "Keeper of the Flame".
This is the rhythm guitar part played throughout the song. Enjoy!!!


Intro:

Guitar 1
e|-----------------|------------------|-----------------|------------------|
B|-----------------|------------------|-----------------|------------------|
G|-----------------|------------------|-----------------|------------------|
D|-----9-----7-----|-5----------------|-----9-----7-----|-5----------------|
A|-----7-----9-----|-7-------5-p2-----|-----7-----9-----|-7-------5-p2-----|
E|-0-0---0-0---0-0-|---0-0-0------3-0-|---0---0-0---0-0-|---0-0-0------3-0-|

e|-----------------|------------------|-----------------|------------------|
B|-----------------|------------------|-----------------|------------------|
G|-----------------|------------------|-----------------|------------------|
D|-----9-----7-----|-5----------------|-----9-----7-----|-5--------------5-|
A|-----7-----9-----|-7-------5-p2-----|-----7-----9-----|-7-------2-5-p2-3-|
E|---0---0-0---0-0-|---0-0-0------3-0-|---0---0-0---0-0-|---0-0-0----------|

                                      "Half Rest"
e|-----------------|------------------|--------------------|
B|-----------------|------------------|--------------------|
G|-----------------|------------------|--------------------|
D|-----5-------5---|-----5-----7----5-|--------------------|
A|-----3-3-3-3-3-3-|-3-3-3-3-3-5----3-|-----------5-p2-----|
E|-----------------|------------------|----------------3-0-|

Guitar 2
e|-----------------|------------------|-----------------|------------------|
B|-----------------|------------------|-----------------|------------------|
G|-----------------|------------------|-----------------|------------------|
D|-----------------|----------------2-|-----------------|----------------2-|
A|-----------------|---------5-p2---2-|-----------------|---------5-p2---2-|
E|-----------------|--------------3-0-|-----------------|--------------3-0-|

e|-----------------|------------------|-----------------|------------------|
B|-----------------|------------------|-----------------|------------------|
G|-----------------|------------------|-----------------|------------------|
D|-----------------|----------------2-|-----------------|----------------5-|
A|-----------------|---------5-p2---2-|-----------------|---------2-5-p2-3-|
E|-----------------|--------------3-0-|-----------------|------------------|

                                      "Half Rest"
e|-----------------|------------------|--------------------|
B|-----------------|------------------|--------------------|
G|-----------------|------------------|--------------------|
D|-----------------|-----------7----5-|--------------------|
A|-----------------|-----------5----3-|-----------5-p2-----|
E|-----------------|------------------|----------------3-0-|


Intro Riff:
e|-----------------|------------------|-----------------|------------------|
B|-----------------|------------------|-----------------|------------------|
G|-----------------|------------------|-----------------|------------------|
D|-----9-----7-----|-5-----7----------|-----9-----7-----|-5-----7----------|
A|-----7-----9-----|-7-----5----------|-----7-----9-----|-7-----5----------|
E|-0-0---0-0---0-0-|---0-0------0-2-3-|-0-0---0-0---0-0-|---0-0----0-2-3---|
                                                                         x2

Verse:

Guitar 1
e|-----------------|--------------------|-----------------|-------------------|
B|-----------------|--------------------|-----------------|-------------------|
G|-----------------|--------------------|-----------------|-------------------|
D|-----9-----7-----|---2-p0-----2-p0-h2-|-----9-----7-----|---5-p4-----5-p4---|
A|-----7-----9-----|--------3-----------|-----7-----9-----|--------5--------5-|
E|-0-0---0-0---0-0-|-0------------------|-0-0---0-0---0-0-|-0-----------------|
                                                                            x4

Guitar 2
e|-----------------|--------------------|-----------------|-------------------|
B|-----------------|--------------------|-----------------|-------------------|
G|-----------------|--------------------|-----------------|-------------------|
D|-----9-----7-----|---5-p4-----5-p4-h5-|-----9-----7-----|---9-p7-----9-p7---|
A|-----7-----9-----|--------7-----------|-----7-----9-----|--------9--------9-|
E|-0-0---0-0---0-0-|-0------------------|-0-0---0-0---0-0-|-0-----------------|
                                                                            x4

Chorus:
e|-----------------|------------------|-----------------|----0-------------|
B|-----------------|------------------|-----------------|----0-------------|
G|-----------------|------------------|-----------------|------------------|
D|-5--5------5---7-|----7-------7-----|---------------2-|------------------|
A|-3--3------3---5-|----5-------5---5-|----5------5---2-|------------------|
E|-----------------|----------------3-|----3------2---0-|------------------|

e|-----------------|------------------|-----------------|------------------|
B|-----------------|------------------|-----------------|------------------|
G|-----------------|------------------|-----------------|------------------|
D|-5--5------5---7-|----7-------7---7-|--s9-----9-----7-|--s9-----9-s7-7---|
A|-3--3------3---5-|----5-------5---5-|--s7-----7-----5-|--s7-----7-s5-5---|
E|-----------------|------------------|-----0-0---0-0---|-----0-0----------|

e|-----------------|------------------|-----------------|----0-------------|
B|-----------------|------------------|-----------------|----0-------------|
G|-----------------|------------------|-----------------|------------------|
D|-5--5------5---7-|----7-------7-----|---------------2-|------------------|
A|-3--3------3---5-|----5-------5---5-|----5------5---2-|------------------|
E|-----------------|----------------3-|----3------2---0-|------------------|

e|-----------------|------------------|-----------------|------------------|
B|-----------------|------------------|-----------------|------------------|
G|-----------------|------------------|-----------------|-----5------------|
D|-5--5------5---7-|----7-------7-----|-4---------------|---5--------------|
A|-3--3------3---5-|----5-------5-----|-2-2-2-2-2-2-2-2-|-3-----5----------|
E|-----------------|------------------|-----------------|-------3------2-3-|


Verse:

Chorus:

Post-Chorus:

Guitar 1
e|-----------------|------------------|-----------------|------------------|
B|-----------------|------------------|-----------------|------------------|
G|-----------------|------------------|-----------------|------------------|
D|-2---2-----4-----|-5-----7--9-s7-s9-|-----2-----------|----------9-s7-s9-|
A|-2---2-----4-----|-5-----7--7-s5-s7-|-----2-----------|----------7-s5-s7-|
E|-0---------------|------------------|-----0-----------|------------------|

e|-----------------|------------------|-----------------|------------------|
B|-----------------|------------------|-----------------|------------------|
G|-----------------|------------------|-----------------|------------------|
D|-----2-----4-----|-5-----7--9-s7-s9-|-----2-----4-----|-5-----7----------|
A|-----2-----4-----|-5-----7--7-s5-s7-|-----2-----4-----|-5-----5----------|
E|-----------------|------------------|-----------------|------------------|

Guitar 2
e|-----------------|------------------|-----------------|------------------|
B|-----------------|------------------|-----------------|------------------|
G|-----------------|------------------|-----------------|------------------|
D|-2---2-----------|----------9-s7-s9-|-----2-----4-----|-5-----7--9-s7-s9-|
A|-2---2-----------|----------7-s5-s7-|-----2-----4-----|-5-----5--7-s5-s7-|
E|-0---0-----------|------------------|-----------------|------------------|

e|-----------------|------------------|-----------------|------------------|
B|-----------------|------------------|-----------------|------------------|
G|-----------------|------------------|-----------------|------------------|
D|-----2-----------|----------9-s7-s9-|-----2-----4-----|-5-----7----------|
A|-----2-----------|----------7-s5-s7-|-----2-----4-----|-5-----5----------|
E|-----0-----------|------------------|-----------------|------------------|


Intro Riff (guitar solo):

Chorus (modified for guitar solo section):
e|-----------------|------------------|-----------------|----0-------------|
B|-----------------|------------------|-----------------|----0-------------|
G|-----------------|------------------|-----------------|------------------|
D|-5--5------5---7-|----7-------7-----|---------------2-|------------------|
A|-3--3------3---5-|----5-------5---5-|----5----------2-|------------------|
E|-----------------|----------------3-|----3------3-2-0-|------------------|

e|-----------------|------------------|-----------------|------------------|
B|-----------------|------------------|-----------------|------------------|
G|-----------------|------------------|-----------------|------------------|
D|-5--5------5---7-|----7-------7---7-|--s9-----9-----7-|--s9-----9--------|
A|-3--3------3---5-|----5-------5---5-|--s7-----7-----5-|--s7-----7--------|
E|-----------------|------------------|-----0-0---0-0---|-----0-0----------|

Arpeggios Section:

Guitar 1
e|-------------------------------------|
B|-------------------------------------|
G|-------------------------------------|
D|-9-p5---5-9-p5---5-9-p5---5-9-p5---5-|
A|------7--------7--------7--------7---|
E|-------------------------------------|

e|-----------------------------------------|
B|-----------------------------------------|
G|-----------------------------------------|
D|-10-p7---7-10-p7---7-10-p7---7-10-p7---7-|
A|-------9---------9---------9---------9---|
E|-----------------------------------------|

e|-----------------------------------------|
B|-----------------------------------------|
G|-11-p7---7-11-p7---7-11-p7---7-11-p7---7-|
D|-------9---------9---------9---------9---|
A|-----------------------------------------|
E|-----------------------------------------|

e|-----------------------------------------|
B|-----------------------------------------|
G|-12-p9---9-12-p9---9-12-p9---9-12-p9---9-|
D|-------9---------9---------9---------9---|
A|-----------------------------------------|
E|-----------------------------------------|

e|---------------------------------------------|
B|---------------------------------------------|
G|-12-p9----9-12-p9----9-12-p9----9-12-p9----9-|
D|-------10---------10---------10---------10---|
A|---------------------------------------------|
E|---------------------------------------------|

e|-----------------------------------------------------|
B|-----------------------------------------------------|
G|-14-p11----11-14-p11----11-14-p11----11-14-p11----11-|
D|--------12-----------12-----------12-----------12----|
A|-----------------------------------------------------|
E|-----------------------------------------------------|

e|---------------------------------------------|---------------------------|
B|---------------------------------------------|---------------------------|
G|-11-p8---8-11-p8---8-11-p8---8-11-p8---------|-----5---------------------|
D|-------9---------9---------9---------9-------|---5-----------------------|
A|---------------------------------------------|-3-----5-------------------|
E|---------------------------------------------|-------3---------------2-3-|

Guitar 2
e|---------------------------------|---------------------------------|
B|---------------------------------|---------------------------------|
G|---------------------------------|---------------------------------|
D|---------------------------------|---------------------------------|
A|-3-3-3-3-3-3-3-3-3-3-3-3-3-3-3-3-|-5-5-5-5-5-5-5-5-5-5-5-5-5-5-5-5-|
E|---------------------------------|---------------------------------|

e|---------------------------------|---------------------------------|
B|---------------------------------|---------------------------------|
G|---------------------------------|---------------------------------|
D|---------------------------------|---------------------------------|
A|---------------------------------|-7-7-7-7-7-7-7-7-7-7-7-7-7-7-7-7-|
E|-3-3-3-3-3-3-3-3-3-3-3-3-3-3-3-3-|---------------------------------|

e|---------------------------------|---------------------------------|
B|---------------------------------|---------------------------------|
G|---------------------------------|---------------------------------|
D|---------------------------------|---------------------------------|
A|-3-3-3-3-3-3-3-3-3-3-3-3-3-3-3-3-|-5-5-5-5-5-5-5-5-5-5-5-5-5-5-5-5-|
E|---------------------------------|---------------------------------|

e|---------------------------------|---------------------------------|
B|---------------------------------|---------------------------------|
G|---------------------------------|-----5---------------------------|
D|---------------------------------|---5-----------------------------|
A|-2-2-2-2-2-2-2-2-2-2-2-2-2-2-2-2-|-3-----5-------------------------|
E|---------------------------------|-------3---------------------2-3-|


Post-Chorus (modified):

Guitar 1
e|-----------------|------------------|-----------------|------------------|
B|-----------------|------------------|-----------------|------------------|
G|-----------------|------------------|-----------------|------------------|
D|-2---2-----4-----|-5-----7--9-s7-s9-|-----2-----------|------------------|
A|-2---2-----4-----|-5-----7--7-s5-s7-|-----2-----------|------------------|
E|-0---------------|------------------|-----0-----------|------------------|

Guitar 2
e|-----------------|------------------|-----------------|------------------|
B|-----------------|------------------|-----------------|------------------|
G|-----------------|------------------|-----------------|------------------|
D|-2---2-----------|----------9-s7-s9-|-----2-----4-----|-5-----7----------|
A|-2---2-----------|----------7-s5-s7-|-----2-----4-----|-5-----5----------|
E|-0---0-----------|------------------|-----------------|------------------|


Intro Riff: x1

Verse:

Chorus:

Outro:

Guitar 1 (ending melody):
e|-----------------|------------------|
B|-----------------|------------------|
G|-----------------|----------------5-|
D|-----------4---5-|-7----------5-----|
A|-7---------------|------------------|
E|-----------------|------------------|

e|-----------------|------------------------------------|
B|-----------------|------------------------------------|
G|-4-----4---------|-5-p4-----4-------------------------|
D|-----------------|------7-5---7-5-4-7-5-p4---5-p4-----|
A|-----------------|-------------------------7------7-5-|
E|-----------------|------------------------------------|

                                             "Artificial Harmonics"
e|-----------------|------------------|-----------------|------------------|
B|-----------------|------------------|-----------------|------------------|
G|-----------------|----------------7-|-9-----9-----9---|-9-----9-----9----|
D|-----------4---5-|-7----------9-----|-----------------|------------------|
A|-7---------------|------------------|-----------------|------------------|
E|-----------------|------------------|-----------------|------------------|
                                                                     etc...

Guitar 2 (intro riff)
e|-----------------|------------------|-----------------|------------------|
B|-----------------|------------------|-----------------|------------------|
G|-----------------|------------------|-----------------|------------------|
D|-----9-----7-----|-5-----7----------|-----9-----7-----|-5-----7----------|
A|-----7-----9-----|-7-----5----------|-----7-----9-----|-7-----5----------|
E|-0-0---0-0---0-0-|---0-0------0-2-3-|-0-0---0-0---0-0-|---0-0----0-2-3---| End
                                                          (repeat and fade)

Tablature Legend: h = hammer-on
                  p = pull-off
                  s = slide

Tablature by NightStalker297

  Visit MetalTabs.com for more metal tablature

bottom separator

Contact Us | Privacy Policy | Disclaimer | Legal Notice
Copyright © 2001-2014 MetalTabs.com. All Rights Reserved.