top separator

Home

Forum

What's New

Submit a Tab

FAQ

Links

Contact Us

Link to Us

MuSpy.com

MetalTabs.com logo

Bands

0-9

A

B

C

D

E

F

G

H

I

J

K

L

M

N

O

P

Q

R

S

T

U

V

W

X

Y

Z

Search

What

Where
 

Lurker of Chalice - "I" Guitar Tab

Plain Text Version
More Lurker of Chalice Tabs

Hits: 3902
Rated: 5.00 out of 5 (1 vote)
Updated: 2008-01-05 23:21:50

 

By:

Demoniac

sendpm.gif

email.gif

Important note
This tab is available online because we obtained explicit permission from Lurker of Chalice or their label.


#----------------------------------PLEASE NOTE---------------------------------#
#This file is the author's own work and represents their interpretation of the #
#song. You may only use this file for private study, scholarship, or research. #
#Unless specified otherwise, this is NOT an official tab from the band members.#
#------------------------------------------------------------------------------#

  Visit MetalTabs.com for more metal tablature
  
Band: Lurker of Chalice
Album: Lurker of Chalice
Song: I

Copyright (c)  Southern Lord (2005)
Version 1.0 - 27/12/2007

Transcribed By: Demoniac
Email:          poisonpm@hotmail.com


.  - palm mute           /  - slide up to
\  - slide down to       ~  - vibrato

h  - hammer on           b  - Bend
p  - pull off            Suffixes for bend
t  - tap                 f  - full bend    h - half bend
ph - pinched harmonic    q  - quarter bend t - tap bend
*  - see comment         ^  - Hold bend    r release bend
x  - Stuccatto           ~  - vibrato bend
,  - slight palm mute    () - ghost note, sustained note
"  - tremolo note        <> - Trill
\

Tuning E A D G B E

Riff 1a(never stops)

|----------------------------------------------------------|
|----------------------------------------------------------|
|----------------------------------------------------------|
|-----16-17-16----16--14-16----19-20-19-18-----------------|
|--14----------17-----------17--------------20-19--17------|
|----------------------------------------------------------|

Riff 1b(this riff is played at the same time as Riff 1a)

|------------------------------------------|
|------------------------------------------|
|------------------------------------------|
|-----4-5-4----4-2-4---7-8-7-6-------------|
|--2--------5--------5---------8-7--5------|
|------------------------------------------|

  Visit MetalTabs.com for more metal tablature

bottom separator

Contact Us | Privacy Policy | Disclaimer | Legal Notice
Copyright © 2001-2014 MetalTabs.com. All Rights Reserved.