top separator

Home

Forum

What's New

Submit a Tab

FAQ

Links

Contact Us

Link to Us

MuSpy.com

MetalTabs.com logo

Bands

0-9

A

B

C

D

E

F

G

H

I

J

K

L

M

N

O

P

Q

R

S

T

U

V

W

X

Y

Z

Search

What

Where
 

Decapitated - "Suffer The Children (Napalm Death's cover)" Guitar Tab

Plain Text Version
More Decapitated Tabs

Hits: 1529
Updated: 2008-01-05 05:22:26

 

By:

davie_gravy

sendpm.gif

email.gif

Important note
This tab is available online because we obtained explicit permission from Decapitated or their label.


#----------------------------------PLEASE NOTE---------------------------------#
#This file is the author's own work and represents their interpretation of the #
#song. You may only use this file for private study, scholarship, or research. #
#Unless specified otherwise, this is NOT an official tab from the band members.#
#------------------------------------------------------------------------------#

  Visit MetalTabs.com for more metal tablature
  
Song:     Suffer The Children (Napalm Death Cover)
    Artist:     Decapitated
     Album:     Nihility
     Label:     Earache
  Released:     February 19, 2002
    Tuning:     D Standard (1 step down) D-G-C-F-A-D (low to high)
        By:     David Waterson
                davie_gravy@yahoo.com
Transcribed:    January 2, 2008


Duration Legend
---------------
W - whole
H - half
Q - quarter
E - 8th
S - 16th
T - 32nd
X - 64th
. - note dotted
|-n-|  - n-tuplets


Tablature Legend
----------------
L - tied note
x - dead note
g - grace note
(n) - ghost note
> - accentuded note
NH - natural harmonic
AH - artificial harmonic
TH - tapped harmonic
SH - semi harmonic
PH - pitch harmonic
h - hammer on
p - pull off
b - bend
br - bend release
pb - pre bend
pbr - pre bend release
brb - bend release bend
\n/ - tremolo bar dip
\n - tremolo bar dive
-/n - tremolo bar release up
/n\ - tremolo bar inverted dip
/n - tremolo bar return
-\n - tremolo bar release down
S - shift slide
s - legato slide
/ -  slide into from below or out of upwards
\ -  slide into from above or out of downwards
~ - vibrato
W - wide vibrato
tr - trill
TP - tremolo picking
T - tapping
S - slap
P - pop
< - fade in
^ - brush up
v - brush down


         PM PM PM PM       PM PM PM PM          PM PM PM PM
      E  S  S  S  S  E  E  S  S  S  S  E     E  S  S  S  S  E  E  E  E  E
D||---------------------------------------|--------------------------------|
A||---------------------------------------|--------------------------------|
F||*--------------------------------------|--------------------------------|
C||*--------------------3-----------------|--6-----------------3--4--------|
G||---3--------------2--1--------------2--|--4--------------2--1--2--6--5--|
D||---1--0--0--0--0--0-----0--0--0--0--0--|-----0--0--0--0--0--------4--3--|


     PM PM PM PM       PM PM PM PM          PM PM PM PM
  E  S  S  S  S  E  E  S  S  S  S  E     E  S  S  S  S  E  E  E  E  E   4x
--------------------------------------|---------------------------------||
--------------------------------------|---------------------------------||
--------------------------------------|--------------------------------*||
--------------------3-----------------|--6-----------------9--8--------*||
--3--------------2--1--------------2--|--4--------------2--7--6--5--6---||
--1--0--0--0--0--0-----0--0--0--0--0--|-----0--0--0--0--0--------3--4---||


      PM PM PM PM PM PM PM PM PM PM PM PM PM PM
   E  S  S  S  S  S  S  S  S  S  S  S  S  S  S
------------------------------------------------|
------------------------------------------------|
*-----------------------------------------------|
*-----------------------------------------------|
---3--------------------------------------------|
---1--0--0--0--0--0--0--0--0--0--0--0--0--0--0--|


     PM PM PM PM PM PM
  E  S  S  S  S  S  S  E   E  E   E
-------------------------------------|
-------------------------------------|
-------------------------------------|
-------------------------------------|
--3--------------------5---6--5---6--|
--1--0--0--0--0--0--0--3S--4--3S--4--|


     PM PM PM PM PM PM PM PM PM PM PM PM PM PM
  E  S  S  S  S  S  S  S  S  S  S  S  S  S  S
-----------------------------------------------|
-----------------------------------------------|
-----------------------------------------------|
-----------------------------------------------|
--3--------------------------------------------|
--1--0--0--0--0--0--0--0--0--0--0--0--0--0--0--|


     PM PM PM PM PM PM                      PM PM PM PM       PM PM PM PM
  E  S  S  S  S  S  S  E  E  E  E        E  S  S  S  S  E  E  S  S  S  S  E
------------------------------------||---------------------------------------|
------------------------------------||---------------------------------------|
-----------------------------------*||*--------------------------------------|
-----------------------------------*||*--------------------3-----------------|
--3--------------------6--5--6--5---||---3--------------2--1--------------2--|
--1--0--0--0--0--0--0--4--3--4--3---||---1--0--0--0--0--0-----0--0--0--0--0--|


     PM PM PM PM                      PM PM PM PM       PM PM PM PM
  E  S  S  S  S  E  E  E  E  E     E  S  S  S  S  E  E  S  S  S  S  E
--------------------------------|--------------------------------------|
--------------------------------|--------------------------------------|
--------------------------------|--------------------------------------|
--6-----------------3--4--------|--------------------3-----------------|
--4--------------2--1--2--6--5--|--3--------------2--1--------------2--|
-----0--0--0--0--0--------4--3--|--1--0--0--0--0--0-----0--0--0--0--0--|


     PM PM PM PM
  E  S  S  S  S  E  E  E  E  E   4x
---------------------------------||
---------------------------------||
--------------------------------*||
--6-----------------9--8--------*||
--4--------------2--7--6--5--6---||
-----0--0--0--0--0--------3--4---||


      PM PM PM PM PM PM PM PM PM PM PM PM PM PM
   E  S  S  S  S  S  S  S  S  S  S  S  S  S  S
------------------------------------------------|
------------------------------------------------|
*-----------------------------------------------|
*-----------------------------------------------|
---3--------------------------------------------|
---1--0--0--0--0--0--0--0--0--0--0--0--0--0--0--|


     PM PM PM PM PM PM
  E  S  S  S  S  S  S  E   E  E   E
-------------------------------------|
-------------------------------------|
-------------------------------------|
-------------------------------------|
--3--------------------5S--6--5S--6--|
--1--0--0--0--0--0--0--3---4--3---4--|


     PM PM PM PM PM PM PM PM PM PM PM PM PM PM
  E  S  S  S  S  S  S  S  S  S  S  S  S  S  S
-----------------------------------------------|
-----------------------------------------------|
-----------------------------------------------|
-----------------------------------------------|
--3--------------------------------------------|
--1--0--0--0--0--0--0--0--0--0--0--0--0--0--0--|


     PM PM PM PM PM PM                        PM
  E  S  S  S  S  S  S  E  E  E  E        Q    E  Q    E  S S S S
------------------------------------||---------------------------|
------------------------------------||---------------------------|
-----------------------------------*||*--------------------------|
-----------------------------------*||*--2----2--6----6----------|
--3--------------------6--5--6--5---||---2----2--4----4----------|
--1--0--0--0--0--0--0--4--3--4--3---||---0----x--4----4--3-4-3-4-|


       PM                         PM
  Q    E  Q    E  S S S S    Q    E  Q    E  S S S S
--------------------------|--------------------------|
--------------------------|--------------------------|
--------------------------|--------------------------|
--2----2--3----3----------|--2----2--6----6----------|
--2----2--1----1----------|--2----2--4----4----------|
--0----x--1----1--3-4-3-4-|--0----x--4----4--3-4-3-4-|


       PM                           PM
  Q    E  Q    E  S S S S      Q    E  Q    E  S S S S
---------------------------||--------------------------|
---------------------------||--------------------------|
--------------------------*||--------------------------|
--2----2--3----3----------*||--2----2--6----6----------|
--2----2--1----1-----------||--2----2--4----4----------|
--0----x--1----1--3-4-3-4--||--0----x--4----4--3-4-3-4-|


  PM PM PM PM PM                         PM
  S  S  S  S  E  Q    E  S S S S    Q    E  Q    E  S S S S
---------------------------------|--------------------------|
---------------------------------|--------------------------|
---------------------------------|--------------------------|
--------------2--3----3----------|--2----2--6----6----------|
--------------2--1----1----------|--2----2--4----4----------|
--0--0--0--0--x--1----1--3-4-3-4-|--0----x--4----4--3-4-3-4-|


  PM PM PM PM PM                    PM PM PM PM PM
  S  S  S  S  E  Q    E  S S S S    S  S  S  S  E  Q    E  S S S S
---------------------------------|---------------------------------|
---------------------------------|---------------------------------|
---------------------------------|---------------------------------|
--------------2--3----3----------|--------------2--6----6----------|
--------------2--1----1----------|--------------2--4----4----------|
--0--0--0--0--x--1----1--3-4-3-4-|--0--0--0--0--x--4----4--3-4-3-4-|


  PM PM PM PM PM                         PM
  S  S  S  S  E  Q    E  S S S S    Q    E  Q    E  S S S S
---------------------------------|--------------------------|
---------------------------------|--------------------------|
---------------------------------|--------------------------|
--------------2--3----3----------|--2----2--6----6----------|
--------------2--1----1----------|--2----2--4----4----------|
--0--0--0--0--x--1----1--3-4-3-4-|--0----x--4----4--3-4-3-4-|


  PM PM PM PM PM                         PM PM
  S  S  S  S  E  Q    E  S S S S      E  E  E  S S 10x
---------------------------------||-----------------||
---------------------------------||-----------------||
---------------------------------||*---------------*||
--------------2--3----3----------||*--------6------*||
--------------2--1----1----------||---2--3--4--5-6--||
--0--0--0--0--x--1----1--3-4-3-4-||---0--1-----3-4--||


   T T T T T T T T T T T T T T T T T T T T T T T T T T T T T T T T
-------------------------------------------------------------------|
-------------------------------------------------------------------|
*------------------------------------------------------------------|
*--------------------------------------------------8-8-8-8-8-8-8-8-|
---2-2-2-2-2-2-2-2-2-2-2-2-6-6-6-6-5-5-5-5-5-5-5-5-----------------|
-------------------------------------------------------------------|


  T T T T T T T T T T T T T T T T T T T T T T T T T T T T T T T T
-------------------------------------------------------------------||
-------------------------------------------------------------------||
------------------------------------------------------------------*||
------------------------------------------------------------------*||
--2-2-2-2-2-2-2-2-2-2-2-2-6-6-6-6-5-5-5-5-5-5-5-5------------------||
--------------------------------------------------4-4-4-4-4-4-4-4--||


   T T T T T T T T T T T T T T T T T T T T T T T T T T T T T T T T
-------------------------------------------------------------------|
-------------------------------------------------------------------|
*------------------------------------------------------------------|
*------------------------------------------------------------------|
-----------------------------------7-7-7-7-7-7-7-7-7-7-7-7-7-7-7-7-|
---6-6-6-6-6-6-6-6-6-6-6-6-4-4-4-4---------------------------------|


  T T T T T T T T T T T T T T T T T T T T T T T T T T T T T T T T
-------------------------------------------------------------------||
-------------------------------------------------------------------||
------------------------------------------------------------------*||
------------------------------------------------------------------*||
------------------------------------------8-8-8-8-7-7-7-7-7-7-7-7--||
--6-6-6-6-6-6-6-6-6-6-6-6-4-4-4-4-5-5-5-5--------------------------||


      PM PM
   E  E  E  S S  8x
-----------------||
-----------------||
*---------------*||
*--------6------*||
---2--3--4--5-6--||
---0--1-----3-4--||


   T T T T T T T T T T T T T T T T T T T T T T T T T T T T T T T T
-------------------------------------------------------------------|
-------------------------------------------------------------------|
*------------------------------------------------------------------|
*--------------------------------------------------8-8-8-8-8-8-8-8-|
---2-2-2-2-2-2-2-2-2-2-2-2-6-6-6-6-5-5-5-5-5-5-5-5-----------------|
-------------------------------------------------------------------|


  T T T T T T T T T T T T T T T T T T T T T T T T T T T T T T T T
-------------------------------------------------------------------||
-------------------------------------------------------------------||
------------------------------------------------------------------*||
------------------------------------------------------------------*||
--2-2-2-2-2-2-2-2-2-2-2-2-6-6-6-6-5-5-5-5-5-5-5-5------------------||
--------------------------------------------------4-4-4-4-4-4-4-4--||


   T T T T T T T T T T T T T T T T T T T T T T T T T T T T T T T T
-------------------------------------------------------------------|
-------------------------------------------------------------------|
*------------------------------------------------------------------|
*------------------------------------------------------------------|
-----------------------------------7-7-7-7-7-7-7-7-7-7-7-7-7-7-7-7-|
---6-6-6-6-6-6-6-6-6-6-6-6-4-4-4-4---------------------------------|


  T T T T T T T T T T T T T T T T T T T T T T T T T T T T T T T T
-------------------------------------------------------------------||
-------------------------------------------------------------------||
------------------------------------------------------------------*||
------------------------------------------------------------------*||
------------------------------------------8-8-8-8-7-7-7-7-7-7-7-7--||
--6-6-6-6-6-6-6-6-6-6-6-6-4-4-4-4-5-5-5-5--------------------------||


      PM PM                                PM PM PM PM
   E  E  E  S S  8x  W                     E  E  E  E  H
-----------------||-------------------||------------------------|
-----------------||-------------------||------------------------|
*---------------*||-------------------||*-----------------------|
*--------6------*||-------------------||*--------------3--------|
---2--3--4--5-6--||--2----------------||---2--2--2--2--1--------|
---0--1-----3-4--||--0----------------||---0--0--0--0-----------|


  PM PM PM PM               PM PM PM PM             PM      PM
  E  E  E  E  E  E  Q       E  E  E  E  H           E  Q    E  E  E  Q     4x
-------------------------|-----------------------|-------------------------||
-------------------------|-----------------------|-------------------------||
-------------------------|-----------------------|------------------------*||
-------------------------|--------------3--------|------------------------*||
--2--2--2--2--5--6--3----|--2--2--2--2--1--------|--2--2----x--4--3--4-----||
--0--0--0--0--3--4--1----|--0--0--0--0-----------|--0--0----0--2--1--2-----||


   PM PM PM PM PM PM PM PM
   S  S  S  S  S  S  S  S  H           H        Q      Q
------------------------------------|-----------------------|
------------------------------------|-----------------------|
*-----------------------------------|-----------------------|
*--------------------------3--------|--4--------5-----------|
---------------------------1--------|--2--------3-----------|
---0--0--0--0--0--0--0--0-----------|----------------<>4----|


  PM PM PM PM PM PM PM PM
  S  S  S  S  S  S  S  S  H           H        Q      Q
-----------------------------------|------------------------||
-----------------------------------|------------------------||
-----------------------------------|-----------------------*||
--------------------------3--------|--4--------6-----------*||
--------------------------1--------|--2--------4------------||
--0--0--0--0--0--0--0--0-----------|----------------<>4-----||


   PM PM PM PM             PM PM PM PM               PM PM PM PM
   E  E  E  E  H           E  E  E  E  E  E  Q       E  E  E  E  H
------------------------|-------------------------|-----------------------|
------------------------|-------------------------|-----------------------|
*-----------------------|-------------------------|-----------------------|
*--------------3--------|-------------------------|--------------3--------|
---2--2--2--2--1--------|--2--2--2--2--5--6--3----|--2--2--2--2--1--------|
---0--0--0--0-----------|--0--0--0--0--3--4--1----|--0--0--0--0-----------|


  PM      PM                  PM PM PM PM PM PM PM PM
  E  Q    E  E  E  Q          S  S  S  S  S  S  S  S  H
-------------------------||------------------------------------|
-------------------------||------------------------------------|
------------------------*||*-----------------------------------|
------------------------*||*--------------------------3--------|
--2--2----x--4--3--4-----||---------------------------1--------|
--0--0----0--2--1--2-----||---0--0--0--0--0--0--0--0-----------|


                          PM PM PM PM PM PM PM PM
  H        Q      Q       S  S  S  S  S  S  S  S  H
-----------------------|-----------------------------------|
-----------------------|-----------------------------------|
-----------------------|-----------------------------------|
--4--------5-----------|--------------------------3--------|
--2--------3-----------|--------------------------1--------|
----------------<>4----|--0--0--0--0--0--0--0--0-----------|


                            PM PM PM PM
  H        Q      Q         E  E  E  E  H           H        Q      Q
------------------------||-----------------------|-----------------------|
------------------------||-----------------------|-----------------------|
-----------------------*||-----------------------|-----------------------|
--4--------6-----------*||--------------3--------|--4--------5-----------|
--2--------4------------||--2--2--2--2--1--------|--2--------3-----------|
----------------<>4-----||--0--0--0--0-----------|----------------<>4----|


  PM PM PM PM PM PM PM PM
  S  S  S  S  S  S  S  S  H           H        Q      Q
-----------------------------------|-----------------------|
-----------------------------------|-----------------------|
-----------------------------------|-----------------------|
--------------------------3--------|--4--------6-----------|
--------------------------1--------|--2--------4-----------|
--0--0--0--0--0--0--0--0-----------|----------------<>4----|


  PM PM PM PM PM PM PM PM
  S  S  S  S  S  S  S  S  H           H        Q      Q
-----------------------------------|-----------------------|
-----------------------------------|-----------------------|
-----------------------------------|-----------------------|
--------------------------3--------|--4--------5-----------|
--------------------------1--------|--2--------3-----------|
--0--0--0--0--0--0--0--0-----------|----------------<>4----|


  PM PM PM PM PM PM PM PM
  S  S  S  S  S  S  S  S  H           H        Q      Q
-----------------------------------|-----------------------|
-----------------------------------|-----------------------|
-----------------------------------|-----------------------|
--------------------------3--------|--4--------6-----------|
--------------------------1--------|--2--------4-----------|
--0--0--0--0--0--0--0--0-----------|----------------<>4----|


  W
-------------------||
-------------------||
-------------------||
-------------------||
--2----------------||
--0----------------||

  Visit MetalTabs.com for more metal tablature

bottom separator

Contact Us | Privacy Policy | Disclaimer | Legal Notice
Copyright © 2001-2014 MetalTabs.com. All Rights Reserved.