top separator

Home

Forum

What's New

Submit a Tab

FAQ

Links

Contact Us

Link to Us

MuSpy.com

MetalTabs.com logo

Bands

0-9

A

B

C

D

E

F

G

H

I

J

K

L

M

N

O

P

Q

R

S

T

U

V

W

X

Y

Z

Search

What

Where
 

Toxik - "WIR NJN8 in God" Guitar Tab

Plain Text Version
More Toxik Tabs

Hits: 3085
Rated: 5.00 out of 5 (3 votes)
Updated: 2008-01-05 18:47:02

 

By:

MetalThrashingMad

sendpm.gif

email.gif

Co-authored by:

Hidrio

sendpm.gif

email.gif

Important note
This tab is available online because we obtained explicit permission from Toxik or their label.


#----------------------------------PLEASE NOTE---------------------------------#
#This file is the author's own work and represents their interpretation of the #
#song. You may only use this file for private study, scholarship, or research. #
#Unless specified otherwise, this is NOT an official tab from the band members.#
#------------------------------------------------------------------------------#

  Visit MetalTabs.com for more metal tablature
  
WIr nJn8 / in God
                             As recorded by Toxik
                        (From the 1989 Album THINK THIS)
                     Copyright (c) 1989 Roadrunner Records

Email - Steve - Thrasher502@hotmail.com

Email - Ryan -  ryanhidrio@hotmail.com

Version - 1.1 - January 5, 2008

Song written by Toxik

Tuning - Standard

 _____________________________________________
|                                             |
|                   KEY:                      |
|                                             |
|                                             |
|           t = tap with right hand           |
|                                             |
| _ = Palm mute           x = scrape          |
|                                             |
| / = slide up            \ = slide down      |
|                                             |
| h = hammer-on           p = pull-off        |
|                                             |
| ph = pinched harmonic   \                   |
|                          \  = dive with     |
| sh = semi-harmonic        \      bar        |
|                                             |
| ~ = vibrato             _ = palm mute       |
|                                             |
| wb = whole step bend   hb = half step bend  |
|                                             |
| r = release            x - dead note        |
|_____________________________________________|



 Intro - 0:31 - 1:10
|----------------------------------------------------------|
|----------------------------------------------------------|
|-/9---7h9p7----/12-10-9h10p9------------------------------|
|-----------h9-----------------/12--10h12p10-9-------------|
|----------------------------------------------12-10-8--7\-|
|----------------------------------------------------------|

|-----------------------------------------------------------|
|--------------------------------------------wb--------wbr--|
|--------12----14/15/17/19--/21---17h19p17--17--16h17p16----|
|-----15----14----------------------------------------------|
|-----------------------------------------------------------|
|-/12-------------------------------------------------------|
   ^                | - - - -| <- slide and use bar
   ^
    Pre-dive with bar and slide up


 shredding in key of C ------->
|-------------------------------------------------------------------------|
|-------------------------------------------------------------------------|
|----------------------------------------------14-------14-16----14-16-17-|
|----------14-------14-15----14-15-17-14-15-17----15-17-------17----------|
|-14-15-17----15-17-------17----------------------------------------------|
|-------------------------------------------------------------------------|

|---------------------------------13-------13-15----13-15-17-13------------|
|---------15-------15-17-13-15-17----15-17-------17------------13----------|
|-14-16-17----16-17----------------------------------------------14--------|
|------------------------------------------------------------------15------|
|--------------------------------------------------------------------15-14-|
|--------------------------------------------------------------------------|

   hb                                             nh
|-/19------13-/15----12------------------17------12---------------------|
|------------------------nh-----------15----13--------13\--13\----------|
|-------------------------9\--/---------------------------------12-10-9-|
|---------------------------\/------------------------------------------|
|--------------------------bar dives------------------------------------|
|-----------------------------------------------------------------------|

|-12-15-13-14----13-12h13p12----------------------------------------|
|-------------15----------------12-11h12p11-------------------------|
|----------------------------13----------------10-9h10p9------------|
|-------------------------------------------12--------------9----9--|
|--------------------------------------------------------11---12----|
|-------------------------------------------------------------------|

                                                  bend and vibrato
                                                    with fretting hand
                                                      t
|----------------------------------------------15---h22wb~~~~~~~--|
|------------------------------------------13---------------------|
|--------------------------------------14-------------------------|
|-----------------------------------------------------------------|
|----8-7-8--------------------------------------------------------|
|-10--------4-7-5-7-5~~~~~~~~~------------------------------------|



 Verse 1 - 1:11
|-------------------------------------|
|-------------------------------------|
|-12\-----9--9--9--10-----------------|
|-10\-----7--7--7--8---7-77-7-77-7-77-|
|-----00---------------0-00-0-00-0-00-|
|-------------------------------------|

|-------------------------------------------|
|-------------------------------------------|
|-12\-------9--9--9-/10---------------------|
|-10\-------7--7--7-/8----10-9--7-----------|
|-----0-00----------------8--7--5--9--10-12-|
|----------------------------------7--8--10-|

|------------------------------------------|
|------------------------------------------| <
|-12\-----9--9--9-/12--10------------------|   One guitar
|-10\-----7--7--7-/10--8---7-77-7-77-7-77--| <
|-----00-------------------0-00-0-00-0-00--|
|------------------------------------------|
|                                          |
|------------------------------------------|
|------------------------------------------|  <
|-12\-----9--9--9-/12--10------------9--11-|    Other guitar
|-10\-----7--7--7-/10--8---7-77-7-7--7--9--|  <
|-----00-------------------0-00-0-0--------|
|------------------------------------------|

|----------------------------------------------------|
|---------------------------------------------0------|
|-12\-------9--9--10-----------------------------2---|
|-10\-------7--7--8---10-9--7--9--7--5--1---1----2---|
|-----0-00------------8--7--5--7--5--3--2--2-----0---|
|----------------------------------------------------|
                                  Let ring |- -|



 Verse B - 1:25
|-------------------------------------|
|-------------------------------------|
|-12\-----12-10-9--10-----------------|
|-10\-----10-8--7--8---7-77-7-77-7-77-|
|-----00---------------0-00-0-00-0-00-|
|-------------------------------------|

|-------------------------------------------|
|-------------------------------------------|
|-12\-------9--9--9-/10---------------------|
|-10\-------7--7--7-/8----10-9--7-----------|
|-----0-00----------------8--7--5--9--10-12-|
|----------------------------------7--8--10-|

|------------------------------------------|
|------------------------------------------|
|-12\-----9--9--9-/12--10------------------|
|-10\-----7--7--7-/10--8---7-77-7-77-7-77--|
|-----00-------------------0-00-0-00-0-00--|
|------------------------------------------|
|                                          |
|------------------------------------------|
|------------------------------------------|
|-12\-----9--9--9-/12--10------------9--11-|
|-10\-----7--7--7-/10--8---7-77-7----7--9--|
|-----00-------------------0-00-0----------|
|------------------------------------------|

|-------------------------------------------------|
|-------------------------------------------------|
|-12\-------9--9--10--------------------------2---|
|-10\-------7--7--8---10-9--7--9--7--5--1-1-1-2---|
|-----0-00------------8--7--5--7--5--3--2-2-2-0---|
|-------------------------------------------------|



 Riff 1 - 1:38
           let ring | - - - - - - - |
|------------------------------------|-----------------------------------|
|------------------------------------|-----------------------------------|
|-------------------------5--------7-|-----------------------------------|
|----------------------2--------4----|-------------------2--2--2---3--4--|
|-----4-------4-----3--------5-------|-----4-------4-----0--0--0---1--2--|
|-02222---02222----------------------|-02222---02222---------------------|
  ____    ____                         ____    ____

              let ring | - - - - - - - |
|---------------------------------------|----------------------------------|
|---------------------------------------|----------------------------------|
|----------------------------5--------7-|----------------------------------|
|-------------------------2--------4----|----------------------------------|
|----------------------3--------5-------|----------------------7-7-7---7-7-|
|-02222222-02222222---------------------|-02222222-02222222----5-5-5---4-5-|
  _________________                       _________________



  Riff 2
|-------------------------------------------------|
|-------------------------------------------------|
|-------------------------------------------------|
|----44----44----77----77----77----77----99----99-|
|-22----22----44----44----55----55----77----77----|
|-------------------------------------------------|
  __    __    __    __    __    __    __    __

 Ending A - 1:53                          Ending B - 1:59
|--------------------------------------| |-----------------------------|
|--------------------------------------| |-----------------------------|
|----------------9--10------------12\--| |-----------------------------|
|-10-------------9--10------------10\--| |-10---------------10-10--10\-|
|-8--------------7--8-------------8-\--| |-8----------------8--7---8-\-|
|----000-000-000-------000-000-00------| |----000-000-000-0------8-----|
     ___________       __________             _____________



  Riff 3a - 2:02                 tremelo picking
                         | - - - - - - - - - - - - - - - |
|-----------------------|------------------------------------|
|-----------------------|------------------------------------|
|----------0-<[let------|----------------------------7-------|
|-------3----<--notes---|-7--------9--------10---------------|
|----3-------<---ring]--|------------------------------------|
|-1----------<----------|------------------------------------|
|                         ____________________________       |
|                                                            |
|-----------------------|------------------------------------|
|---------------/3------|------------------------------------|
|----------0----/2------|------------------------------------|
|-------3---------------|------------------------------------|
|----3------------------|----------------------------5-------|
|-1---------------------|-5--------7--------8----------------|
                          ____________________________

 RIff 3b - 2:08                  tremelo
                         | - - - - - - - - - - |
|-----------------------|-----------------------------------|
|-----------------------|-----------------------------------|
|----------0-<[let------|-7---------------------------------|
|-------3----<--notes---|---------10-------9----------------|
|----3-------<---ring]--|--------------------------/10--9---|
|-1----------<----------|--------------------------/-8--7---|
|                         __________________                |
|                                                           |
|-----------------------|-----------------------------------|
|---------------/3------|-----------------------------------|
|----------0----/2------|-----------------------------------|
|-------3---------------|-----------------------------------|
|----3------------------|-5------------------------/10--9---|
|-1---------------------|---------8--------7-------/-8--7---|
                          __________________


                                 Let ring
 Chorus - 2:17              | - - - - - - - - |
|-----------------------------------------------|
|-----------------------------------------------|
|-10-10-----10-10------9~~----------------------|
|-------7-7-------7-7--7~~---------3---------6--|
|-------------------------------5---------8-----|
|----------------------------7--------10--------|

                                 Let ring
                            | - - - - - - - - |
|-----------------------------------------------|
|---------------------10~~----------------------|
|-10-10-----10-10------9~~---------4---------7--|
|-------7-7-------7-7-----------6---------9-----|
|----------------------------8--------11--------|
|-----------------------------------------------|

                                             Let ring
                             | - - - - - - - - - - - - - - - - - - |
|-----------------------------------------------|-----------------------------|
|-----------------------------------------------|-----------------------------|
|-10-10-----10-10------9~~----------------------|-------4---------7---9-----9-|
|-------7-7-------7-7--7~~---------3---------6--|----6---------9------7-----7-|
|-------------------------------5---------8-----|-8--------11---------0-------|
|----------------------------7--------10--------|-----------------------------|
                                                                      ^
                                                   with some bar dips ^



 Verse 1 (a little variation) - 2:31
|------------------------------------------|
|------------------------------------------|
|-12\-----9--9--9-/12--10------------------|
|-10\-----7--7--7-/10--8---7-77-7-77-7-77--|
|-----00-------------------0-00-0-00-0-00--|
|------------------------------------------|
|                                          |
|------------------------------------------|
|------------------------------------------|
|-12\-----9--9--9-/12--10------------9--11-|
|-10\-----7--7--7-/10--8---7-77-7----7--9--|
|-----00-------------------0-00-0----------|
|------------------------------------------|

|-------------------------------------------|
|-------------------------------------------|
|-12\-------9--9--9-/10---------------------|
|-10\-------7--7--7-/8----10-9--7-----------|
|-----0-00----------------8--7--5--9--10-12-|
|----------------------------------7--8--10-|

|------------------------------------------|
|------------------------------------------|
|-12\-----9--9--9-/12--10------------------|
|-10\-----7--7--7-/10--8---7-77-7-77-7-77--|
|-----00-------------------0-00-0-00-0-00--|
|------------------------------------------|
|                                          |
|------------------------------------------|
|------------------------------------------|
|-12\-----9--9--9-/12--10-------8---9---11-|
|-10\-----7--7--7-/10--8---7-77-6---7---9--|
|-----00-------------------0-00------------|
|------------------------------------------|

|---------------------------------------------------|
|---------------------------------------------------|
|-12\-------9--9--10--------------------------2-----|
|-10\-------7--7--8---10-9--7--9--7--5--1-1-1-2-----|
|-----0-00------------8--7--5--7--5--3--2-2-2-0-----|
|---------------------------------------------------|



 Verse 1 (a little variation) - 2:44
|------------------------------------------|
|------------------------------------------|
|-12\-----9--9--9-/12--10------------------|
|-10\-----7--7--7-/10--8---7-77-7-77-7-77--|
|-----00-------------------0-00-0-00-0-00--|
|------------------------------------------|
|                                          |
|------------------------------------------|
|------------------------------------------|
|-12\-----9--9--9-/12----------------------|
|-10\-----7--7--7-/10----------------------|
|-----00-----------------------------------|
|------------------------------------------|

|--------------------------------------|
|--------------------------------------|
|-12\-------9--9--10-------------------|
|-10\-------7--7--8---10-9--7--9--7--5-|
|-----0-00------------8--7--5--7--5--3-|
|--------------------------------------|

|------------------------------------------|
|------------------------------------------|
|-12\-----9--9--9-/12--10------------------|
|-10\-----7--7--7-/10--8---7-77-7-77-7-77--|
|-----00-------------------0-00-0-00-0-00--|
|------------------------------------------|
|                                          |
|------------------------------------------|
|----------------------------------ph------|
|-12\-----9--9--9-/12--10---------12~~-----|
|-10\-----7--7--7-/10--8---7-77-7----------|
|-----00-------------------0-00-0----------|
|------------------------------------------|

|---------------------------------------------------|
|---------------------------------------------------|
|-12\-------9--9--10--------------------------2-----|
|-10\-------7--7--8---10-9--7--9--7--5--1-1-1-2-----|
|-----0-00------------8--7--5--7--5--3--2-2-2-0-----|
|---------------------------------------------------|



 Play Riff 1 - 2:58
 Play Riff 2 with ending A - 3:10
 Play Riff 2 with ending B - 3:16
 Play Riff 3a - 3:22



 Riff 3b - 3:28                  tremelo
          (no octaves)    | - - - - - - - - - |
|-----------------------|-----------------------------------|
|-----------------------|-----------------------------------|
|----------0--[let------|-----------------------------------|
|-------3-------notes---|-----------------------------------|
|----3-----------ring]--|-5------------------------/10--9---|
|-1---------------------|---------8--------7-------/-8--7---|
|                         __________________                |
|                                                           |
|-----------------------|-----------------------------------|
|---------------/3------|-----------------------------------|
|----------0----/2------|-----------------------------------|
|-------3---------------|-----------------------------------|
|----3------------------|-5------------------------/10--9---|
|-1---------------------|---------8--------7-------/-8--7---|
                          __________________



 Play chorus riffs - 3:38 - 3:50



 Solo riffage - 3:51
|-------------------------------------|---------------------------------|
|-------------------------------------|---------------------------------|
|-----------------7--------7--------7-|---------------------------------|
|--------7--------7--------7--------7-|------5555-----------------------|
|-888888---777777---555555---333333---|-----------8888-7777-5-----------|
|-------------------------------------|-7777------------------8-7-8-5~--|
  ______   ______   ______   ______     ___________________

|-------------------------------------|-------------------------------------|
|-------------------------------------|-------------------------------------|
|-----------------7--------7--------7-|-------------------------------------|
|--------7--------7--------7--------7-|------5555---------------------------|
|-888888---777777---555555---333333---|-----------8888-7777-5-------------5-|
|-------------------------------------|-7777------------------8-7-8-5-7-8---|
  ______   ______   ______   ______     ___________________

         tremelo  picked
  | - - - - - - - - - - - - - - - - - -|
|-----------------|-------------------------------|
|-----------------|----------------------br-half--|
|-----------------|----------------------7~~------|
|-------------2---|----------2-----------5~~------|
|-2---4---5-------|-2--4--5-----------------------|  play
|-----------------|-------------3--2--0-----------|   twice
  _____________     ___________________

|----------------------------|
|----------------------------|
|-------------------------7\-|
|--10-------10-------10---5\-|
|--8----9---8----2---8-------|
|-------7--------0-----------|

|---------------------|--------------------|---------------------|
|---------------------|--------------------|---------------------|
|---------------------|----------------9---|---------------------|
|-7777------7777------|-7777-----------x---|-7777------7777------|
|------5555------8888-|------5555------7---|------5555------8888-|
|---------------------|--------------------|---------------------|
  ___________________   _________            ___________________

|--------------0----------------------------------------|
|--------------0----------------------------------------|
|--------------9----------------------------------------|
|-7777---------7----------------------------------------|
|------5555----7----------------------------6--7--9--10-|
|--------------0----------------------------4--5--7--8--|
  _________



Play chorus - 4:44



  Verse 1 (a little variation) - 4:57
|------------------------------------------|
|------------------------------------------|
|-12\-----9--9--9-/12--10------------------|
|-10\-----7--7--7-/10--8---7-77-7-77-7-77--|
|-----00-------------------0-00-0-00-0-00--|
|------------------------------------------|
|                                          |
|------------------------------------------|
|------------------------------------------|
|-12\-----9--9--9-/12--10------------9--11-|
|-10\-----7--7--7-/10--8---7-77-7-7--7--9--|
|-----00-------------------0-00-0-0--------|
|------------------------------------------|

|-------------------------------------------|
|-------------------------------------------|
|-12\-------9--9--9-/10---------------------|
|-10\-------7--7--7-/8----10-9--7-----------|
|-----0-00----------------8--7--5--9--10-12-|
|----------------------------------7--8--10-|

|------------------------------------------|
|------------------------------------------|
|-12\-----9--9--9-/12--10------------------|
|-10\-----7--7--7-/10--8---7-77-7-77-7-77--|
|-----00-------------------0-00-0-00-0-00--|
|------------------------------------------|
|                                          |
|------------------------------------------|
|------------------------------------------|
|-12\-----9--9--9-/12--10------------9--11-|
|-10\-----7--7--7-/10--8---7-77-7-7--7--9--|
|-----00-------------------0-00-0-0--------|
|------------------------------------------|

|------------------------------------------------------|
|---------------------------------------------0--------|
|-12\-------9--9--10-----------------------------2-----|
|-10\-------7--7--8---10-9--7--9--7--5--1---1----2-----|
|-----0-00------------8--7--5--7--5--3--2--2-----0-----|
|------------------------------------------------------|
                                  Let ring |- -|

END

  Visit MetalTabs.com for more metal tablature

bottom separator

Contact Us | Privacy Policy | Disclaimer | Legal Notice
Copyright © 2001-2014 MetalTabs.com. All Rights Reserved.