top separator

Home

Forum

What's New

Submit a Tab

FAQ

Links

Contact Us

Link to Us

MetalTabs.com logo

Bands

0-9

A

B

C

D

E

F

G

H

I

J

K

L

M

N

O

P

Q

R

S

T

U

V

W

X

Y

Z

Search

What

Where
 

Leviathan (US) - "Heir to the Noose of Ghoul" Guitar Tab

Plain Text Version
More Leviathan (US) Tabs

Hits: 2076
Rated: 5.00 out of 5 (1 vote)
Updated: 2007-12-23 23:27:16

 

By:

Demoniac

sendpm.gif

email.gif

Important note
This tab is available online because we obtained explicit permission from Leviathan (US) or their label.


#----------------------------------PLEASE NOTE---------------------------------#
#This file is the author's own work and represents their interpretation of the #
#song. You may only use this file for private study, scholarship, or research. #
#Unless specified otherwise, this is NOT an official tab from the band members.#
#------------------------------------------------------------------------------#

  Visit MetalTabs.com for more metal tablature
  
Band   Leviathan
Album: Tentacles Of Whorror
Song: Heir To The Noose Of Ghoul

Copyright (c)  Moribund Records (2004)
Version 1.0 - 15/12/2007

Transcribed By: Demoniac
Email:          poisonpm@hotmail.com


.  - palm mute           /  - slide up to
\  - slide down to       ~  - vibrato

h  - hammer on           b  - Bend
p  - pull off            Suffixes for bend
t  - tap                 f  - full bend    h - half bend
ph - pinched harmonic    q  - quarter bend t - tap bend
*  - see comment         ^  - Hold bend    r release bend
x  - Stuccatto           ~  - vibrato bend
,  - slight palm mute    () - ghost note, sustained note
"  - tremolo note        <> - Trill
\

Tuning E A D G B E

Riff 1

|--------------------------------------------|
|--------------------------------------------|
|--------------------------------------------|
|----------------------5"-6"-5"--2"----------|
|--5"--7"--8"--7"--5"--3"-4"-3"--0"----------|
|--3"--5"--6"--5"--3"------------------------|

Riff 2

|--------------------------------------------|
|--------------------------------------------|
|--0"-----5"-----9"---9"---------------------|
|--2"-----7"-----12"--11"--------------------|
|--2"-----7"-----12"--11"--------------------|
|--------------------------------------------|

Riff 1
Riff 2

Fill
|--------------------------------------------|
|--------------------------------------------|
|----------------5---------------------------|
|-(5)------------5--4------------------------|
|-(5)------------3--4------------------------|
|-(3)---------------2------------------------|


Riff 3a

|--------------------------------------------
|--------------------------------------------
|----3--5--7--5--3--2h3h2h3--5h6h5h6---------
|--------------------------------------------
|--------------------------------------------
|--0--0--0--0--0-----------------------------
   .  .  .  .  .        2nd time (different ending)
------------------------|--------------------|
------------------------|--------------------|
----3--5--7--5--3---5---|--5-----------------|
--------------------5-5-|--5--4--------------|
--------------------3-5-|--3--4--------------|
--0--0--0--0--0-------3-|-----2--------------|
  .  .  .  .  .

Riff 3b

|--------------------------------------------
|--------------------------------------------
|--------------------------------------------
|----3--5--7--5--3--2h3h2h3--5h6h5h6---------
|--------------------------------------------
|--0--0--0--0--0-----------------------------
   .  .  .  .  .        2nd time (different ending)
------------------------|--------------------|
------------------------|--------------------|
--------------------5---|--5-----------------|
----3--5--7--5--3---5-5-|--5--4--5-----------|
--------------------3-5-|--3--4--5-----------|
--0--0--0--0--0-------3-|-----2--3-----------|
  .  .  .  .  .

Fill2
Just slide up (from the 9th fret...or something)

Riff 4
|---------------------------------------------
|---------------------------------------------
|---------------------------------------------
|----5---5-5-5---5---5\----9--9---8-----------
|----5---5-5-5---5---5\----9--9---8-----------
|----3---3-3-3---3---3\----7--7---6---6~------

---------------------------------------------|
---------------------------------------------|
---------------------------------------------|
----5---5-5-5---5---5/----3--3---4-----------|
----5---5-5-5---5---5/----3--3---4-----------|
----3---3-3-3---3---3/----1--1---2---2~------|


Riff 5
|--------------------------------------------
|--------------------------------------------
|--------------------------------------------
|--------------------------------------------
|--------------------------------------------
|00000001111114444444444222222211111111111111
.............................................

--------------------------------------------|
--------------------------------------------|
--------------------------------------------|
--------------------------------------------|
--------------------------------------------|
00000001111114444446666666222222222222211111|
............................................

After a couple of repeats

Riff 5 w/ Lead

Lead

|------------------------------------------|
|------------------------------------------|
|-------8"-7"------------6"--5"------------|
|------------7"----------------5"--6"------|
|---5"---------8"-----3"-------------------|
|------------------------------------------|


Riff 6x1
|--------------------
|--------------------
|--------------------
|----5---5--5\----7--
|----5---5--5\----5--
|----3---3--3\----5--

--------------------
--------------------
--------------------
----5---5--5\----3--
----5---5--5\----1--
----3---3--3\----1--

Fill 3 (THE END)

|---------------------------------------|
|---------------------------------------|
|---------------------------------------|
|----5---5--5\----7------------5--------|
|----5---5--5\----5------------3--------|
|----3---3--3\----5------------3--------|

  Visit MetalTabs.com for more metal tablature

bottom separator

Contact Us | Privacy Policy | Disclaimer | Legal Notice
Copyright © 2001-2014 MetalTabs.com. All Rights Reserved.