top separator

Home

Forum

FAQ

Contact Us

Link to Us

MetalTabs.com logo

Bands

0-9

A

B

C

D

E

F

G

H

I

J

K

L

M

N

O

P

Q

R

S

T

U

V

W

X

Y

Z

Marduk - "The Funeral Seemed to be Endless" Guitar Tab

Plain Text Version
More Marduk Tabs

Hits: 316
Updated: 2008-02-05 23:57:18

By:

inrwtl


#----------------------------------PLEASE NOTE---------------------------------#
#This file is the author's own work and represents their interpretation of the #
#song. You may only use this file for private study, scholarship, or research. #
#Unless specified otherwise, this is NOT an official tab from the band members.#
#------------------------------------------------------------------------------#

  Visit MetalTabs.com for more metal tablature
  
Band: Marduk

Album: Dark Endless

Song: The Funeral Seemed To Be Endless

Copyright (c)  No Fashion Records  1992

Version 1.1 - 13/12/2007

Transcribed By: inrwtl, Federico Romano Mei Caldora, Fredduk

Email: inrwtl@alice.it


.  - palm mute           /  - slide up to
\  - slide down to       ~  - vibrato
h  - hammer on           b  - Bend
p  - pull off            Suffixes for bend
t  - tap                 f  - full bend    h - half bend
ph - pinched harmonic    q  - quarter bend t - tap bend
*  - see comment         ^  - Hold bend    r release bend
x  - Stuccatto           ~  - vibrato bend
,  - slight palm mute    () - ghost note, sustained note
"  - tremolo note        <> - Trill

Tuning   C F A# D# G C


Riff 1

|----------------------|--------------------------------------------|
|----------------------|--------------------------------------------|
|----------------------|--------------------------------------------|
|------4-4-------5-2-4-|------4-4-------5-4-2-----------------------|
|-2-2--2-2--4-4--3-0-2-|-2-2--2-2--4-4--3-2-0-----------------------|
|-0-0-------2-2--------|-0-0-------2-2------------------------------|


Riff 2

|-------------------------|-----------------------------------------|
|-------------------------|-----------------------------------------|
|-------------------------|-----------------------------------------|
|-------------------------|---------------------7-7-5-5-------------|
|-7-7-7-7-5-5-4-5-4-4-4-4-|-7-7-7-7-5-5-4-5-4-4-5-5-3-3-------------|
|-5-5-5-5-3-3-2-3-2-2-2-2-|-5-5-5-5-3-3-2-3-2-2---------------------|


Riff 3

|---------------------------------|---------------------------------|
|---------------------------------|---------------------------------|
|---------------------------------|---------------------------------|
|-2-3-2---2-----------------------|-2----(2)------------------------|
|-------5---5-3-5-3-3-3-3-2-2-2-2-|-0----(0)------------------------|
|---------------------------------|---------------------------------|


Riff 4

|-------------------------------------------------------------------|
|-------------------------------------------------------------------|
|-------------------------------------------------------------------|
|-----2-2-3-3-------------------------2-2-3-3-------------2-2-------|
|-0-0---------2-2-3-3-5-5-3-3-2-2-0-0---------2-2-3-3-5-5-----5-3---|
|-------------------------------------------------------------------|


Riff 5

|-------------------------------------------------------------------|
|-------------------------------------------------------------------|
|-------------------------------------------------------------------|
|----7--------4---------8---------6---------------------------------|
|-9-----9--6-----6--10-----10--8-----8------------------------------|
|-------------------------------------------------------------------|


Riff 6

|------------------|------------------------------------------------|
|------------------|------------------------------------------------|
|---9---9---9---10-|------------------------------------------------|
|-7---6------------|------------------------------------------------|
|---------7---8----|-7-7-6-6-2-2-3-3--------------------------------|
|------------------|-5-5-4-4-0-0-1-1--------------------------------|


Riff 7

|-------------------------------------------------------------------|
|-------------------------------------------------------------------|
|-------------------------------------------------------------------|
|-------------------------------------------------------------------|
|-7-7-7-7-9-9-10-10-12-12-12-12-10-10-9-9-5-5-5-5-7-7-9-9-2-2-2-2-3-|
|-5-5-5-5-7-7-8--8--10-10-10-10-8--8--7-7-3-3-3-3-5-5-7-7-0-0-0-0-1-|

|-------------------------------------------------------------------|
|-------------------------------------------------------------------|
|-------------------------------------------------------------------|
|-------------------------------------------------------------------|
|-3-3-3-------------------------------------------------------------|
|-1-1-1-------------------------------------------------------------|



Riff 8

|-------------------------------------------------------------------|
|-------------------------------------------------------------------|
|-------------------------------------------------------------------|
|-7-7-7-7-9-9-10-10-12-12-12-12-10-10-9-9-------------7-7-9-9-------|
|-----------------------------------------10-10-10-10---------7-7-7-|
|-------------------------------------------------------------------|

|-------------------------------------------------------------------|
|-------------------------------------------------------------------|
|-------------------------------------------------------------------|
|-------------------------------------------------------------------|
|-7-8-8-8-8---------------------------------------------------------|
|-------------------------------------------------------------------|


END

  Visit MetalTabs.com for more metal tablature

bottom separator

Contact Us | Privacy Policy | Disclaimer
Copyright © 2001-2014 MetalTabs.com. All Rights Reserved.