top separator

Home

Forum

What's New

Submit a Tab

FAQ

Links

Contact Us

Link to Us

MuSpy.com

MetalTabs.com logo

Bands

0-9

A

B

C

D

E

F

G

H

I

J

K

L

M

N

O

P

Q

R

S

T

U

V

W

X

Y

Z

Search

What

Where
 

Brutal Truth - "Dementia" Guitar Tab

Plain Text Version
More Brutal Truth Tabs

Hits: 2844
Updated: 2007-12-23 23:23:50

 

By:

persekutor

sendpm.gif

email.gif

Important note
This tab is available online because we obtained explicit permission from Brutal Truth or their label.


#----------------------------------PLEASE NOTE---------------------------------#
#This file is the author's own work and represents their interpretation of the #
#song. You may only use this file for private study, scholarship, or research. #
#Unless specified otherwise, this is NOT an official tab from the band members.#
#------------------------------------------------------------------------------#

  Visit MetalTabs.com for more metal tablature
  
Band:  Brutal Truth
Album: Sounds of the Animal Kingdom
Song:  Dementia

Copyright (c)  Relapse Records 1997
Version 1.0 - 12/13/07

Transcribed By: Tom Murphy
Email:          allmicedup@yahoo.com

Tuning C# F# B E G# C#

Intro (7/8)
C#||---------------------------|
G#||---------------------------|
E ||---------------------------| x4
B ||----------7----------7--8--|
F#||--5-6-8-9----5-6-8-9-------|
C#||---------------------------|

Bass Break

Dbeat Riff (4/4)
|-----------------------------|
|-----------------------------|
|-----------------------------|
|-----------------------3--4--| x4
|--5-4--4-4-4--4-3-2--2-1--2--|
|--3-2--2-2-2--2-1-0--0-------|

Chorus (3/4)
|--------------------|
|--------------------|
|--------------------|
|--------------------| x8
|--7-----4-----5--4--|
|-----3-----3--------|

Dbeat riff again
|-----------------------------|
|-----------------------------|
|-----------------------------|
|-----------------------3--4--| x8
|--5-4--4-4-4--4-3-2--2-1--2--|
|--3-2--2-2-2--2-1-0--0-------|

Chorus (3/4)
|--------------------|
|--------------------|
|--------------------|
|--------------------| x8
|--7-----4-----5--4--|
|-----3-----3--------|

Intro Riff again
|---------------------------|
|---------------------------|
|---------------------------| x8
|----------7----------7--8--|
|--5-6-8-9----5-6-8-9-------|
|---------------------------|

Chorus (3/4)
|--------------------|
|--------------------|
|--------------------|
|--------------------| x4
|--7-----4-----5--4--|
|-----3-----3--------|

Bridge (4/4) slightly slower
|---------------------------|---------------------------|
|---------------------------|---------------------------|
|---------------------------|---------------------------|
|---------------------------|---------------------------|
|-----7-5-4-------7-5-4--3--|-----7-5-4-------7-5-4--3--|
|--0-----------0------------|--0-----------0------------|

|---------------------------------|---------------------------------|
|---------------------------------|---------------------------------|
|---------------------------------|---------------------------------|
|---------------------------------|---------------------------------|
|-----14-13-10-------13-10--9--8--|-----14-13-10-------13-10--9--8--|
|--0--------------0---------------|--0--------------0---------------|

all of that x2

Chorus (3/4)
|--------------------|
|--------------------|
|--------------------|
|--------------------| x4
|--7-----4-----5--4--|
|-----3-----3--------|

Guitar Break (2/4)
|--------------|
|--------------|
|--------------|
|-----3--2--3--| x1
|--1--3--2--3--|
|--1-----------|

Dbeat Riff (4/4)
|-----------------------------|
|-----------------------------|
|-----------------------------|
|-----------------------3--4--| x4
|--5-4--4-4-4--4-3-2--2-1--2--|
|--3-2--2-2-2--2-1-0--0-------|

Intro Riff again
|---------------------------|
|---------------------------|
|---------------------------| x4
|----------7----------7--8--|
|--5-6-8-9----5-6-8-9-------|
|---------------------------|

END

  Visit MetalTabs.com for more metal tablature

bottom separator

Contact Us | Privacy Policy | Disclaimer | Legal Notice
Copyright © 2001-2014 MetalTabs.com. All Rights Reserved.