top separator

Home

Forum

What's New

Submit a Tab

FAQ

Links

Contact Us

Link to Us

MetalTabs.com logo

Bands

0-9

A

B

C

D

E

F

G

H

I

J

K

L

M

N

O

P

Q

R

S

T

U

V

W

X

Y

Z

Search

What

Where
 

Primordial - "End of All Times (Martyrs Fire)" Guitar Tab

Plain Text Version
More Primordial Tabs

Hits: 3709
Rated: 5.00 out of 5 (1 vote)
Updated: 2007-12-23 23:15:07

 

By:

sendpm.gif

email.gif

Important note
This tab is available online because we obtained explicit permission from Primordial or their label.


#----------------------------------PLEASE NOTE---------------------------------#
#This file is the author's own work and represents their interpretation of the #
#song. You may only use this file for private study, scholarship, or research. #
#Unless specified otherwise, this is NOT an official tab from the band members.#
#------------------------------------------------------------------------------#

  Visit MetalTabs.com for more metal tablature
  
Band: Primordial
Album: The Gathering Wilderness
Song: End Of All Times (Martyrs Fire)
Copyright (c)  Metalblade Records 2005
Version 1.0 – 06/12/07

Transcribed By: Micheál O Floinn
Email: mickflynn2@hotmail.com


/ - SLIDE UP TO NOTE
 Tuning E A D G B E


RIFF 1 (STRUM EACH CHORD FAST,LISTEN TO SONG FOR EXACT STRUMMING
AND NUMBER OF TIMES) PLAY 3 TIMES

|-7-------------------0-------------3-----------------------------
|-7-------------------0-------------3-----------------------------
|-7-------------------0-------------4-----------------------------
|-9-------------------2-------------5-----------------------------
|-9-------------------2-------------5-----------------------------
|-7-------------------0-------------3-----------------------------

|-7-------------------0-------------3--------5----------2---------
|-7-------------------0-------------3--------5----------2---------
|-7-------------------0-------------4--------6----------2---------
|-9-------------------2-------------5--------7----------4---------
|-9-------------------2-------------5--------7----------4---------
|-7-------------------0-------------3--------5----------2---------

|-7-------------------0-------------3--------7--------------------
|-7-------------------0-------------3--------8--------------------
|-7-------------------0-------------4--------9--------------------
|-9-------------------2-------------5--------9--------------------
|-9-------------------2-------------5--------7--------------------
|-7-------------------0-------------3--------0--------------------

|-7-------------------0-------------3--------5----------2---------|
|-7-------------------0-------------3--------5----------2---------|
|-7-------------------0-------------4--------6----------2---------|
|-9-------------------2-------------5--------7----------4---------|
|-9-------------------2-------------5--------7----------4---------|
|-7-------------------0-------------3--------5----------2---------|


OCTAVE HARMONY LEAD 1 OVER THIRD REPEAT OF RIFF 1-
 2 GUITARS,SECOND GUITAR PLAYS NOTES THAT ARE IN THE BRACKETS.
(FAST STRUMMING OF OCTAVES,LISTEN TO CD FOR EXACT NUMBER OF TIMES)
|------------------------------------------------------------------
|------------------------------------------------------------------
|-11(7)---------------9(6)-----------7(4)-----------------9(6)-----
|------------------------------------------------------------------
|-9—(5)---------------7(4)-----------5(2)-----------------7(4)-----
|------------------------------------------------------------------

|-------------------------------------------------------------------
|-------------------------------------------------------------------
|-11(7)---------------9(6)-----------7(4)------9(6)------6----------
|---------------------------------------------------------(7)-------
|-9-(5)---------------7(4)-----------5(2)------7(4)------4----------
|---------------------------------------------------------(5)-------

|------------------------------------------------------------------
|------------------------------------------------------------------
|-11(7----------------9(6)----------7(4)-16(12)-18(14)-14(11)—-11(7)
|------------------------------------------------------------------
|-9-(5)---------------7(4)----------5(2)-14(10)-16(12)-12(9)---9-(5)
|------------------------------------------------------------------

|-------------------------------------------------------------------
|-------------------------------------------------------------------
|-11(7)---------------9(6)-----------7(4)------9(6)------6----------
|---------------------------------------------------------(7)-------
|-9-(5)---------------7(4)-----------5(2)------7(4)------4----------
|---------------------------------------------------------(5)-------

|-----------------------------
|-----------------------------
|-/7--------------------------  NOTES RING OUT
|----(/9)---------------------
|-/5--------------------------
|----(/7)---------------------


RIFF 2 (THIS JUST SHOWS THE CHORDS,LISTEN TO SONG FOR STRUMMING PATTERN
AND TIMING) PLAY 4 TIMES

|-7-----------------------9--10-------------7-----------3-----------|
|-7-----------------------9--10-------------8-----------3-----------|
|-7-----------------------9--11-------------9-----------4-----------|
|-9-----------------------11-12-------------9-----------5-----------|
|-9-----------------------11-12-------------7-----------5-----------|
|-7—----------------------9--10-------------0-----------3-----------|

REPEAT RIFF 1 (WITH OCTAVE HARMONY LEAD 1)
REPEAT RIFF 2 (4 TIMES)


RIFF 3 (FAST CONSTANT STRUMMING) PLAY 8 TIMES
|-7-----------------3---------------5--7----------5---------2-------|
|-8-----------------3---------------5--7----------5---------2-------|
|-9-----------------4---------------6--7----------6---------2-------|
|-9-----------------5---------------7--9----------7---------4-------|
|-7-----------------5---------------7--9----------7---------4-------|
|-0-----------------3---------------5--7----------5---------2-------|

(THERE IS AN OCTAVE LEAD FOR LAST 4 REPEATS OF RIFF 3,DIDN’T TAB IT OUT
BECAUSE IT TAKES TOO LONG AND SHOULD BE EASY ENOUGH TO WORK OUT
IF YOU REALLY WANT TO PLAY IT!IF YOU WANT IT TABBED EMAIL ME.)


REPEAT RIFF 2 –LISTEN TO CD FOR STRUMMING RHYTHM(PLAY 8 TIMES)


RIFF 4 (PLAY 6 TIMES)
|-2--2-2-2-2--2-2-2-2--2-2-2-2--2-2-2-2--2-2-2-2--2-2-2-
|-3--3-3-3-3--3-3-3-3--3-3-3-3--3-3-3-3--3-3-3-3--3-3-3-
|-4--4-4-4-4--4-4-4-4--4-4-4-4--4-4-4-4--4-4-4-4--4-4-4-
|-4--4-4-4-4--4-4-4-4--4-4-4-4--4-4-4-4--4-4-4-4--4-4-4-
|-2--2-2-2-2--2-2-2-2--2-2-2-0--0-0-2-------------------
|-------------------------------------3--3-3-3-3--3-3-3-

|-2--2-2-2-2--2-2-2-2--2-2-2-2--2-2-2-2--2-2-2-2--2-2-2-
|-3--3-3-3-3--3-3-3-3--3-3-3-3--3-3-3-3--3-3-3-3--3-3-3-
|-4--4-4-4-4--4-4-4-4--4-4-4-4--4-4-4-4--4-4-4-4--4-4-4-
|-4--4-4-4-4--4-4-4-4--4-4-4-4--4-4-4-4--4-4-4-4--4-4-4-
|-------------------------------------------------------
|-3--3-3-3-2--2-2-3-0--0-0-0-0--0-0-0-0--0-0-0-2--2-2-0-

|-0--0-0-0-0--0-0-0-0--0-0-0-0--0-0-0--|
|-2--2-2-2-2--2-2-2-2--2-2-2-2--2-2-2--|
|-2--2-2-2-2--2-2-2-2--2-2-2-2--2-2-2--|
|-2--2-2-2-2--2-2-2-2--2-2-2-2--2-2-2--|
|-0--0-0-0-0--0-0-0-0--0-0-0-0--0-0-0--|
|--------------------------------------|

THERE IS OCTAVE LEADS FOR LAST 4 REPEATS OF RIFF 4,EASY ENOUGH TO WORK OUT.
IF YOU WANT THEM TABBED EMAIL ME)


END OF SONG,NOTES RING OUT
|-2-----------------------|
|-3-----------------------|
|-4-----------------------|
|-4-----------------------|
|-2-----------------------|
|-------------------------|

  Visit MetalTabs.com for more metal tablature

bottom separator

Contact Us | Privacy Policy | Disclaimer | Legal Notice
Copyright © 2001-2014 MetalTabs.com. All Rights Reserved.