top separator

Home

Forum

What's New

Submit a Tab

FAQ

Links

Contact Us

Link to Us

MetalTabs.com logo

Bands

0-9

A

B

C

D

E

F

G

H

I

J

K

L

M

N

O

P

Q

R

S

T

U

V

W

X

Y

Z

Search

What

Where
 

Primordial - "Autumn's Ablaze" Guitar Tab

Plain Text Version
More Primordial Tabs

Hits: 2944
Rated: 4.80 out of 5 (5 votes)
Updated: 2007-12-23 23:14:46

 

By:

sendpm.gif

email.gif

Important note
This tab is available online because we obtained explicit permission from Primordial or their label.


#----------------------------------PLEASE NOTE---------------------------------#
#This file is the author's own work and represents their interpretation of the #
#song. You may only use this file for private study, scholarship, or research. #
#Unless specified otherwise, this is NOT an official tab from the band members.#
#------------------------------------------------------------------------------#

  Visit MetalTabs.com for more metal tablature
  
Band: Primordial
Album: A Journeys End
Song:  Autumns Ablaze

Copyright (c)Candlelight Records 2005
Version 1.0  05/12/07

Transcribed By: Mick Flynn
Email: mickflynn2@hotmail.com

Tuning  D A D G B E

% - repeat last bar
\XX\XX\- slide down strings while strumming

RIFF 1
|-------------------------|-----------|-------------|---------------|
|-------------------------|-----------|-------------|---------------|
|-5-5-5-5-5-5-5-5-5-555-|-----------|-------------|---------------|
|-------------------------|-----%-----|-----%-------|-----%---------|
|-3-3-3-3-3-3-3-3-3-3-3-3-|-----------|-------------|---------------|
|-2-2-2-2-2-2-2-2-2-2-2-2-|-----------|-------------|---------------|

|-------------------------|---------------|-------------------------|
|-------------------------|---------------|-------------------------|
|-44-4-4-4-4-4-4-4-4-44-|---------------|-9-9-9-9-9-9-9-9-9-9-9-9-|
|-2-2-2-2-2-2-2-2-2-2-2-2-|------%--------|-------------------------|
|-2-2-2-2-2-2-2-2-2-2-2-2-|---------------|-7-7-7-7-7-7-7-7-7-7-7-7-|
|-2-2-2-2-2-2-2-2-2-2-2-2-|---------------|-------------------------|

|-------------------------|-------------------------|---------------|
|-------------------------|-------------------------|---------------|
|-4-4-4-4-4-4-9-9-9-4-4-4-|-5-5-5-5-5-5-5-5-5-5-5-5-|---------------|
|-------------------------|-------------------------|-------%-------|
|-2-2-2-2-2-2-7-7-7-2-2-2|-3-3-3-3-3-3-3-3-3-3-3-3-|---------------|
|-------------------------|-2-2-2-2-2-2-2-2-2-2-2-2-|---------------|

|-------------------------|-------------------------|
|-------------------------|-------------------------|
|-9-9-9-9-9-9-9-9-9-9-9-9-|-7-7-7-7-7-7-5-5-5-5-5-5-|
|-------------------------|-------------------------|
|-7-7-7-7-7-7-7-7-7-7-7-7-|-5-5-5-5-5-5-3-3-3-3-3-3-|
|-------------------------|-------------------------|

|-------------------------|-------------------------|
|-------------------------|-------------------------|
|-44-4-4-4-4-4-4-4-4-44-|-4-4-4-4-4-4-4-4-4-------|
|-2-2-2-2-2-2-2-2-2-2-2-2-|-2-2-2-2-2-2-2-2-2-0-0-0-|
|-2-2-2-2-2-2-2-2-2-2-2-2-|-2-2-2-2-2-2-2-2-2-0-0-0-|
|-2-2-2-2-2-2-2-2-2-2-2-2-|-2-2-2-2-2-2-2-2-2-0-0-0-|

|-------------------------|-------------------------|
|-------------------------|-------------------------|
|-44-4-4-4-4-4-4-4-------|-------------------------|
|-2-2-2-2-2-2-2-2-2-0-0-0-|-5-5-5-4-4-4-2-2-2-0-0-0-|
|-2-2-2-2-2-2-2-2-2-0-0-0-|-5-5-5-4-4-4-2-2-2-0-0-0-|
|-2-2-2-2-2-2-2-2-2-0-0-0-|-5-5-5-4-4-4-2-2-2-0-0-0-|

|-------------------------|------------------------|
|-------------------------|------------------------|
|-5-5-5-5-5-5-5-5-5-555-|------------------------|
|-------------------------|-----------%------------|
|-3-3-3-3-3-3-3-3-3-3-3-3-|------------------------|
|-2-2-2-2-2-2-2-2-2-2-2-2-|------------------------|

|-------------------------|-------------------------------------|
|-------------------------|-------------------------------------|
|-9-9-9-9-9-9-9-9-9-9-9-9-|-12-12-12-12-12-12-11-11-11-11-11-11-|
|-------------------------|-------------------------------------|
|-7-7-7-7-7-7-7-7-7-7-7-7-|-10-10-10-10-10-10-9--9--9--9--9--9--|
|-------------------------|-------------------------------------|

|-------------------------|-------------------------|
|-------------------------|-------------------------|
|-44-4-4-4-4-4-4-4-4-44-|-4-4-4-4-4-4-4-4-4-------|
|-2-2-2-2-2-2-2-2-2-2-2-2-|-2-2-2-2-2-2-2-2-2-0-0-0-|
|-2-2-2-2-2-2-2-2-2-2-2-2-|-2-2-2-2-2-2-2-2-2-0-0-0-|
|-2-2-2-2-2-2-2-2-2-2-2-2-|-2-2-2-2-2-2-2-2-2-0-0-0-|

|-------------------------|-------------------------|
|-------------------------|-------------------------|
|-44-4-4-4-4-4-4-4-------|-------------------------|
|-2-2-2-2-2-2-2-2-2-0-0-0-|-5-5-5-4-4-4-2-2-2-0-0-0-|
|-2-2-2-2-2-2-2-2-2-0-0-0-|-5-5-5-4-4-4-2-2-2-0-0-0-|
|-2-2-2-2-2-2-2-2-2-0-0-0-|-5-5-5-4-4-4-2-2-2-0-0-0-|

|-------------------------|------------------------|
|-------------------------|------------------------|
|-5-5-5-5-5-5-5-5-5-555-|------------------------|
|-------------------------|-----------%------------|
|-3-3-3-3-3-3-3-3-3-3-3-3-|------------------------|
|-2-2-2-2-2-2-2-2-2-2-2-2-|------------------------|

|-------------------------|-------------------------------------|
|-------------------------|-------------------------------------|
|-9-9-9-9-9-9-9-9-9-9-9-9-|-12-12-12-12-12-12-12-12-12-12-12-12-|
|-------------------------|-------------------------------------|
|-7-7-7-7-7-7-7-7-7-7-7-7-|-10-10-10-10-10-10-10-10-10-10-10-10-|
|-------------------------|-------------------------------------|

|-------------------------------------|
|-------------------------------------|
|-16-16-16-16-16-16-16-16-16-16-16-16-|
|-------------------------------------|
|-14-14-14-14-14-14-14-14-14-14-14-14-|
|-------------------------------------|

|-------------------------------------|
|-------------------------------------|
|-16-16-16-16-16-16-16-16-16-14-14-14-|
|-------------------------------------|
|-14-14-14-14-14-14-14-14-14-12-12-12-|
|-------------------------------------|


|-------------------------------------|
|-------------------------------------|
|-16-16-16-16-16-16-16-16-16-16-16-16-|
|-------------------------------------|
|-14-14-14-14-14-14-14-14-14-14-14-14-|
|-------------------------------------|

|-------------------------------------|
|-------------------------------------|
|-16-16-16-16-16-16-------------------|
|-------------------------------------|
|-14-14-14-14-14-14-\XX\XX\XX\XX\XX\X-|
|-------------------\XX\XX\XX\XX\XX\X-|


RIFF 2 (PLAY 4 TIMES)
|----------------------------------------------|
|----------------------------------------------|
|-2--2-2-2-2-2--2-2-2-2-2--2-2-2-2-3--3-3-3-3--|
|-4--4-4-4-4-4--4-4-4-4-4--4-4-4-4-5-5-5-5-5--|
|-5--5-5-5-5-5--5-5-5-5-5--5-5-5-5-5--5-5-5-5--|
|-0--0-0-0-0-0--0-0-0-0-0--0-0-0-0-0--0-0-0-0--|

RIFF 3
|----------------------------------------------------------------------
|----------------------------------------------------------------------
|-9-9-9-10-10-10-10-10-10-10-10-10-10-10-10-10-10-10-10-10-10-10-10-10-
|-0-0-0-0-0--0--0--0--0--0--0--0--0--0--0--0--0--0--0--0-0-0-0-0--
|-7-7-7-8-8--8--8--8--8--8--8-8-8--8--8--8-8-8-8--8--8--8-8-8--
|-0-0-0-0-0--0--0--0--0--0--0--0--0--0--0--0--0-0-0-0-0-0-0-0--

|----------------------------------------------------------------------
|----------------------------------------------------------------------
|-9-9-9-10-10-10-10-10-10-10-10-10-10-10-10-10-10-10-10-10-10-10-10-10-
|-0-0-0-0-0--0--0--0--0--0--0--0--0--0--0--0--0--0--0--0-0-0-0-0--
|-7-7-7-8-8--8--8--8--8--8--8-8-8--8--8--8-8-8-8--8--8--8-8-8--
|-0-0-0-0-0--0--0--0--0--0--0--0--0--0--0--0--0-0-0-0-0-0-0-0--

|---------------------------------------------------------------------
|---------------------------------------------------------------------
|-12-12-12-14-14-14-14-14-14-14-14-14-14-14-14-14-14-14-14-14-14-14-14
|-0--0--0--0--0--0--0--0--0--0--0--0--0--0--0--0--0--0--0--0--0--0-0-
|-10-10-10-12-12-12-12-12-12-12-12-12-12-12-12-12-12-12-12-12-12-12-12
|-0--0--0--0--0--0--0--0--0--0--0--0--0--0--0--0--0--0--0--0--0--0-0-

|---------------------------------------------------------------------
|---------------------------------------------------------------------
|-14-14-14-15-15-15-15-15-15-15-15-15-15-15-15-15-15-15-15-15-15-15-15
|-0--0--0--0--0--0--0--0--0--0--0--0--0--0--0--0--0--0--0--0--0--0-0-
|-12-12-12-13-13-13-13-13-13-13-13-13-13-13-13-13-13-13-13-13-13-13-13
|-0--0--0--0--0--0--0--0--0--0--0--0--0--0--0--0--0--0--0--0--0--0-0-

|-------------------------------------------------------
|-------------------------------------------------------
|-12-12-12-14-14-14-14-14-14-14-14-14-14-14-14-14-14-14-
|-0--0--0--0--0--0--0--0--0--0--0--0--0--0--0--0--0--0--
|-10-10-10-12-12-12-12-12-12-12-12-12-12-12-12-12-12-12-
|-0--0--0--0--0--0--0--0--0--0--0--0--0--0--0--0--0--0--

|--------------------------------------------------------
|--------------------------------------------------------
|-21-21-21-21-21-21-21-21-19-19-19-19-19-19-19-19-19-19--
|-0--0--0--0--0--0--0--0--0--0--0--0--0--0--0--0--0--0---
|-19-19-19-19-19-19-19-19-17-17-17-17-17-17-17-17-17-17--
|-0--0--0--0--0--0--0--0--0--0--0--0--0--0--0--0--0--0---

|--------------------------------------------------------
|--------------------------------------------------------
|-19-19-19-19-19-19-19-19-19-19-19-19--------------------
|-0--0--0--0--0--0--0--0--0--0--0--0---------------------
|-17-17-17-17-17-17-17-17-17-17-17-17\XX\XX\XX\XX\XX\XX\-
|-0--0--0--0--0--0--0--0--0--0--0--0-\XX\XX\XX\XX\XX\XX\-

RIFF 4a
|-------------------------|----------------------------
|-------------------------|----------------------------
|-2-2-2-2-2-2-2-2-2-2-2-2-|-2-2-2-2-2-2-7-7-7-7-7-7----
|-4-4-4-4-44-4-4-4-4-4-4-|-4-4-4-4-4-4-0-0-0-0-0-0----
|-6-6-6-66-6-6-6-6-6-6-6-|-6-6-6-6-6-6-8-8-8-8-8-8----
|-------------------------|----------------------------

|-------------------------|----------------------------
|-------------------------|----------------------------
|-3-3-3-3-3-3-3-3-3-3-3-3-|-3-3-3-3-3-3-3-3-3-3-3-3----
|-4-4-4-4-44-4-4-4-4-4-4-|-4-4-4-4-4-4-3-3-3-3-3-3----
|-6-6-6-66-6-6-6-6-6-6-6-|-6-6-6-6-6-6-5-5-5-5-5-5----
|-------------------------|----------------------------

|-------------------------|-------------0-0-0-0-0-0----
|-------------------------|-------------1-1-1-1-1-1----
|-2-2-2-2-2-2-2-2-2-2-2-2-|-2-2-2-2-2-2-0-0-0-0-0-0----
|-3-3-3-3-3-3-3-3-3-3-3-3-|-3-3-3-3-3-3-2-2-2-2-2-2----
|-5-5-5-5-5-5-5-5-5-5-55-|-5-5-5-5-5-5-3-33-33-3----
|-0-0-0-0-0-0-0-0-0-0-0-0-|-0-0-0-0-0-0----------------

|-------------------------|-------------0-0-0-0-0-0---|
|-------------------------|-------------1-1-1-1-1-1---|
|-2-2-2-2-2-2-2-2-2-2-2-2-|-2-2-2-2-2-2-0-0-0-0-0-0---|
|-3-3-3-3-3-3-3-3-3-3-3-3-|-3-3-3-3-3-3-2-2-2-2-2-2---|
|-5-5-5-5-5-5-5-5-5-5-55-|-5-5-5-5-5-5-3-33-33-3---|
|-0-0-0-0-0-0-0-0-0-0-0-0-|-0-0-0-0-0-0---------------|


RIFF 5 (SAME AS RIFF 2,JUST DIFFERENT STRUMMING) PLAY 4 TIMES
|--------------------------------------------------|
|--------------------------------------------------|
|-2-2-2-2-2-2-2-2-2-2-2-2-2-2-2-2-2-2-3-3-3-3-3-3--|
|-4-4-4-4-4-4-4-4-4-4-4-4-4-4-4-4-4-4-55-5-5-5-5--|
|-5-5-5-5-5-5-5-5-5-5-5-5-5-5-5-5-5-5-5-5-5-5-5-5--|
|-0-0-0-0-0-0-0-0-0-0-0-0-0-0-0-0-0-0-0-0-0-0-0-0--|

PLAY RIFF 3
PLAY RIFF 4a

|-0-----------------------------
|-1-----------------------------
|-2-----------------------------   NOTES RING OUT,
|-2-----------------------------   BASS SOLO STARTS
|-0-----------------------------
|-------------------------------

RIFF 6
|-------------------------|-------------------------------
|-------------------------|-------------------------------
|-9-9-9-9-9-9-9-9-9-9-9-9-|-9-9-9-9-9-9-9--9--9--9--9--9--
|-7-7-7-7-7-7-7-7-7-7-7-7-|-9-9-9-9-9-9-10-10-10-10-10-10-
|-0-0-0-0-0-0-0-0-0-0-0-0-|-0-0-0-0-0-0-0--0--0--0--0--0--
|-------------------------|-------------------------------

|--------------------------------------
|--------------------------------------
|-12-12-12-12-12-12-12-12-12-12-12-12--
|-10-10-10-10-10-10-10-10-10-10-10-10--
|-0-0-0-0-0--0--0--0--0--0--0--0---
|--------------------------------------

|-------------------------------|--------------------------------
|-------------------------------|--------------------------------
|-10-10-10-10-10-10-7-7-7-7-7-7-|9--9--9--9--9--9--5-5-5-5-5-5---
|-12-12-12-12-12-12-9-9-9-9-9-9-|10-10-10-10-10-10-7-7-7-7-7-7---
|-0--0--0--0--0--0--0-0-0-0-0-0-|0--0--0--0--0--0--0-0-0-0-0-0---
|-------------------------------|--------------------------------

|---------------------------|--------------------------------------
|---------------------------|--------------------------------------
|-5-5-5-5-5-5-7-7-7-7-7-7-7-|-10-10-10-10-10-10-9--9--9--9--9--9---
|-7-7-7-7-7-7-9-9-9-9-9-9-9-|-12-12-12-12-12-12-10-10-10-10-10-10--
|-0-0-0-0-0-0-0-0-0-0-0-0-0-|-0--0--0--0--0--0--0--0--0--0--0--0---
|---------------------------|--------------------------------------

|-------------------------------|---------------------
|-------------------------------|---------------------
|-9--9--9--9--9-9--7-7-7-7-7-7-|-9--9--9--9--9--9----
|-10-10-10-10-10-10-9-9-9-9-9-9-|-10-10-10-10-10-10---
|-0--0--0--0--0--0--0-0-0-0-0-0-|-0--0--0--0--0--0----
|-------------------------------|---------------------

|-------------------------|
|-------------------------|
|-------------------------|
|-5-5-5-5-5-55-5-5-5-5-5-|
|-7-7-7-7-7-7-7-7-777-7-|
|-0-0-0-0-0-0-0-0-0-0-0-0-|

RIFF 7
|----------------------------|----------------------
|----------------------------|----------------------
|-9--9-9-9-9-10--10-10-10-10-|-9--9-9-9-9--5--7--9--
|-7--7-7-7-7-10--10-10-10-10-|-7--7-7-7-7--7--9--10-
|-0--0-0-0-0-8--8--8-8--8-|-0--0-0-0-0--0--0--0--
|----------------------------|----------------------

|----------------------------|----------------------
|----------------------------|----------------------
|-9--9-9-9-9-10--10-10-10-10-|-9--9-9-9-9--5--7--9--
|-7--7-7-7-7-10--10-10-10-10-|-7--7-7-7-7--7--9--10-
|-0--0-0-0-0-8--8--8-8--8-|-0--0-0-0-0--0--0--0--
|----------------------------|----------------------

|---------------------------------|-----------------------
|---------------------------------|-----------------------
|-10--10-10-10-10-10--10-10-10-10-|-9--9-9-9-9-9--9-9-9-9-
|-10--10-10-10-10-10--10-10-10-10-|-7--7-7-7-7-7--7-7-7-7-
|-8---8--8--8--8--8---8--8--8--8--|-0--0-0-0-0-0--0-0-0-0-
|---------------------------------|-----------------------

                     ***
|-----------------------|-----------------------|
|-----------------------|-----------------------|
|-4--4-4-4-4-4--4-4-4-4-|-5--5-5-5-5-5--5-5-5-5-|
|-6--6-6-6-6-6--6-6-6-6-|-7--7-7-7-7-7--7-7-7-7-|
|-7--7-7-7-7-7--7-7-7-7-|-0--0-0-0-0-0--0-0-0-0-|
|-----------------------|-----------------------|

REPEAT RIFF 6
REPEAT RIFF 7 BUT ONLY PLAY IT AS FAR AS ***

RIFF 8 (PLAY 8 TIMES)
|-0-0-0-0-0-0---------------------------------------------|
|-1-1-1-1-1-1-6-6-6-6-6-6-10-10-10-10-10-10-6-6-6-6-6-6---|
|-2-2-2-2-2-2-7-7-7-7-7-7-11-11-11-11-11-11-7-7-7-7-7-7---|
|-2-2-2-2-2-2-7-7-7-7-7-7-10-10-10-10-10-10-7-7-7-7-7-7---|
|-0-0-0-0-0-0-0-0-0-0-0-0-0--0--0--0--0--0--0-0-0-0-0-0---|
|---------------------------------------------------------|

RIFF 9 (PLAY 2 TIMES)
|-0-0-0-0-0-0-0-0-0-0-0-0-|-------------------------
|-1-1-1-1-1-1-1-1-1-1-1-1-|-------------------------
|-2-2-2-2-2-2-2-2-2-2-2-2-|-2-2-2-2-2-2-2-2-2-2-2-2-
|-2-2-2-2-2-2-2-2-2-2-2-2-|-3-3-3-3-3-3-3-3-3-3-3-3-
|-0-0-0-0-0-0-0-0-0-0-0-0-|-5-5-5-5-5-5-5-5-5-5-5-5-
|-------------------------|-0-0-0-0-0-0-0-0-0-0-0-0-

|-0-0-0-0-0-0-0-0-0-0-0-0-|------------------------|
|-1-1-1-1-1-1-1-1-1-1-1-1-|------------------------|
|-0-0-0-0-0-0-0-0-0-0-0-0-|----------%-------------|
|-2-2-2-2-2-2-2-2-2-2-2-2-|------------------------|
|-3-3-3-3-3-3-3-3-3-3-3-3-|------------------------|
|-------------------------|------------------------|


RIFF 10a(SAME AS RIFF 9,DIFFERENT STRUMMING RHYTHM)
PLAY 4 TIMES

|-0--0--0-0-0-|-------------|-0--0--0-0-0-|---------------|
|-1--1--1-1-1-|-------------|-1--1--1-1-1-|---------------|
|-2--2--2-2-2-|-2--2--2-2-2-|-0--0--0-0-0-|---------------|
|-2--2--2-2-2-|-3--3--3-3-3-|-2--2--2-2-2-|-------%-------|
|-0--0--0-0-0-|-5--5--5-5-5-|-3--3--3-3-3|---------------|
|-------------|-0--0--0-0-0-|-------------|---------------|

REPEAT RIFF 8 (8 TIMES)

REPEAT RIFF 10a (2 TIMES)

RIFF 10b (PLAY 2 TIMES)
|-0--0--0-0-0-|-------------|-0--0--0-0-0-|-2--2--2-2-2---|
|-1--1--1-1-1-|-------------|-1--1--1-1-1-|-3--3--3-3-3---|
|-2--2--2-2-2-|-2--2--2-2-2-|-0--0--0-0-0-|-4--4--4-4-4---|
|-2--2--2-2-2-|-3--3--3-3-3-|-2--2--2-2-2-|-4--4--4-4-4---|
|-0--0--0-0-0-|-5--5--5-5-5-|-3--3--3-3-3|-2--2--2-2-2---|
|-------------|-0--0--0-0-0-|-------------|---------------|

RIFF 11 (PLAY 4 TIMES)
|----------------------------------------------|
|----------------------------------------------|
|-2--2-2-2-2-2--2-2-2-2-2--2-2-2-2-2--2-2-2-2--|
|-3--3-3-3-3-3--3-3-3-3-3--3-3-3-3-4-4-4-4-4--|
|-5--5-5-5-5-5--5-5-5-5-5--5-5-5-5-6--6-6-6-6--|
|-0--0-0-0-0-0--0-0-0-0-0--0-0-0-0-0--0-0-0-0--|

REPEAT RIFF 5 (4 TIMES)
REPEAT RIFF 3
REPEAT RIFF 4a (2 TIMES)

RIFF 4b (SAME AS RIFF 4a APART FROM ONE CHORD) PLAY 2 TIMES
ON SECOND REPEAT RIFF SLOWS DOWN FOR END OF SONG

|-------------------------|----------------------------
|-------------------------|----------------------------
|-2-2-2-2-2-2-2-2-2-2-2-2-|-2-2-2-2-2-2-7-7-7-7-7-7----
|-4-4-4-4-44-4-4-4-4-4-4-|-4-4-4-4-4-4-0-0-0-0-0-0----
|-6-6-6-66-6-6-6-6-6-6-6-|-6-6-6-6-6-6-8-8-8-8-8-8----
|-------------------------|----------------------------

|-------------------------|----------------------------
|-------------------------|----------------------------
|-8-8-8-8-8-8-8-8-8-8-8-8-|-8-8-8-8-8-8-3-3-3-3-3-3----
|-4-4-4-4-44-4-4-4-4-4-4-|-4-4-4-4-4-4-3-3-3-3-3-3----
|-6-6-6-66-6-6-6-6-6-6-6-|-6-6-6-6-6-6-5-5-5-5-5-5----
|-------------------------|----------------------------

|-------------------------|-------------0-0-0-0-0-0----
|-------------------------|-------------1-1-1-1-1-1----
|-2-2-2-2-2-2-2-2-2-2-2-2-|-2-2-2-2-2-2-0-0-0-0-0-0----
|-3-3-3-3-3-3-3-3-3-3-3-3-|-3-3-3-3-3-3-2-2-2-2-2-2----
|-5-5-5-5-5-5-5-5-5-5-55-|-5-5-5-5-5-5-3-33-33-3----
|-0-0-0-0-0-0-0-0-0-0-0-0-|-0-0-0-0-0-0----------------



|-------------------------|-------------0-0-0-0-0-0---|
|-------------------------|-------------1-1-1-1-1-1---|
|-2-2-2-2-2-2-2-2-2-2-2-2-|-2-2-2-2-2-2-0-0-0-0-0-0---|
|-3-3-3-3-3-3-3-3-3-3-3-3-|-3-3-3-3-3-3-2-2-2-2-2-2---|
|-5-5-5-5-5-5-5-5-5-5-55-|-5-5-5-5-5-5-3-33-33-3---|
|-0-0-0-0-0-0-0-0-0-0-0-0-|-0-0-0-0-0-0---------------|


END OF SONG,LET CHORD RING OUT
|-----------------------|
|-----------------------|
|-----------------------|
|-4---------------------|
|-5---------------------|
|-0---------------------|

  Visit MetalTabs.com for more metal tablature

bottom separator

Contact Us | Privacy Policy | Disclaimer | Legal Notice
Copyright © 2001-2014 MetalTabs.com. All Rights Reserved.