top separator

Home

Forum

FAQ

Contact Us

Link to Us

MetalTabs.com logo

Bands

0-9

A

B

C

D

E

F

G

H

I

J

K

L

M

N

O

P

Q

R

S

T

U

V

W

X

Y

Z

Malice - "Sinister Double" Guitar Tab

Plain Text Version
More Malice Tabs

Hits: 361
Updated: 2007-12-23 23:09:50

By:

nightstalker297


#----------------------------------PLEASE NOTE---------------------------------#
#This file is the author's own work and represents their interpretation of the #
#song. You may only use this file for private study, scholarship, or research. #
#Unless specified otherwise, this is NOT an official tab from the band members.#
#------------------------------------------------------------------------------#

  Visit MetalTabs.com for more metal tablature
  
"SINISTER DOUBLE"
         (From the album "License to Kill"  Atlantic 1987)

Music & Lyrics: Malice

Tuning: Tune all the strings down one whole step: D
                                                  A
                                                  F
                                                  C
                                                  G
                                                  D

Classic song by Malice from their second album "License to Kill".
This is the rhythm guitar part played throughout the song. Enjoy!!!

Intro: Play the chords using the "hammer-on" technique with your
left hand. Turn up the volume knob of the guitar with your right
hand for each chord that is played (increase the volume from
minimum to maximum to create a "volume pedal" effect).

  "Play Freely..."

   Eb6              Gb dim             Ab5/Eb             G5/D
e|----------------|-----------------|------------------|----------------------|
B|----------------|-10--------------|-9----------------|-8--------------------|
G|-5--------------|-8---------------|-8----------------|-7--------------------|
D|-5--------------|-10--------------|-6----------------|-5--------------------|
A|-6--------------|-9---------------|-6----------------|-5--------------------|
E|----------------|-----------------|------------------|----------------------|

   Gb5/Db           G5/D              Eb6               "Drum Fill..."
e|----------------|-----------------|------------------|----------------------|
B|-7--------------|-8---------------|------------------|----------------------|
G|-6--------------|-7---------------|-5----------------|----------------------|
D|-4--------------|-5---------------|-5----------------|----------------------|
A|-4--------------|-5---------------|-6----------------|----------------------|
E|----------------|-----------------|------------------|----------------------|

Intro Riff:
e|-----------------------|----------------------|-8----|----------------------|
B|-3----------6----------|-3----------3--3------|-8--2-|-3----------6--s8--s6-|
G|-2----------5----------|-3----------3--3------|-5--2-|-2----------5--s7--s5-|
D|----0-0-0-0----0-0-0-0-|----0-0-0-0-------0-0-|----2-|----0-0-0-0-----------|
A|-----------------------|----------------------|----4-|----------------------|
E|-----------------------|----------------------|------|----------------------|
                                                                            x2
Verse:
e|------------------------|----------------------|-8----|----------------------|
B|-------------6----------|-3----------3--3------|-8--2-|-3----------6--s8--s6-|
G|-------------5----------|-3----------3--3------|-5--2-|-2----------5--s7--s5-|
D|-0-0-0-0-0-0----0-0-0-0-|----0-0-0-0-------0-0-|----2-|----0-0-0-0-----------|
A|------------------------|----------------------|----4-|----------------------|
E|------------------------|----------------------|------|----------------------|
                                                                             x4

Pre-Chorus:
e|-----------5-------|-----------------|-------------------|-------------------|
B|-----------3-------|-----------------|-------------------|-------------------|
G|-------------------|------------12---|-------------------|-------------------|
D|-------------------|-10---------10---|-------------------|--------------8-s7-|
A|-5-----------------|-8---------------|-8-s7------7-------|-5-s7------7-------|
E|-3-----------------|-----------------|-6-s5--5-5-5-------|-3-s5--5-5-5--6-s5-|

e|-----------5-------|-----------------|-------------------|-------------------|
B|-----------3-------|-----------------|-------------------|-------------------|
G|-------------------|------------12---|-------------------|-------------------|
D|-------------------|-10---------10---|-------------------|-------------------|
A|-5-----------------|-8---------------|-8-s7------7-------|-5-s7------7-------|
E|-3-----------------|-----------------|-6-s5--5-5-5-------|-3-s5--5-5-5-------|

e|-----------------------|---------------------|
B|-12--11----------------|-2----------5---s6---|
G|-10--9-----------------|-2-------------------|
D|-8---7-----------------|-2----------2---s3---|
A|-----------------------|-4-------------------|
E|-----------------------|---------------------|

Chorus:
e|-----------------------|---------3----|-----------------------|-6-----8---s6-|
B|-3----------5----------|---------3----|-3----------5----------|-6------------|
G|-2----------2----------|---------0----|-2----------2----------|-3-----5---s3-|
D|----0-0-0-0----0-0-0-0-|--------------|----0-0-0-0----0-0-0-0-|--------------|
A|-----------------------|--------------|-----------------------|--------------|
E|-----------------------|-3------------|-----------------------|--------------|
             "Sinister     Double..."

e|-----------------------|-----------8-----|-5----------------|----------------|
B|-3----------5----------|-----------8-----|-5----------------|-2------5----s6-|
G|-2----------2----------|-5---------------|-2----------------|-2--------------|
D|----0-0-0-0----0-0-0-0-|-5---------------|-2----------------|-2------2----s3-|
A|-----------------------|-----------------|------------------|-4--------------|
E|-----------------------|-----------------|------------------|----------------|


e|-----------------------|----------3----|-----------------------|-6-----------|
B|-3----------5----------|----------3----|-3----------5----------|-6-----------|
G|-2----------2----------|----------0----|-2----------2----------|-3-----------|
D|----0-0-0-0----0-0-0-0-|---------------|----0-0-0-0----0-0-0-0-|-------------|
A|-----------------------|---------------|-----------------------|-------------|
E|-----------------------|-3-------------|-----------------------|-------------|
             "Sinister     Double..."

e|-----------------------|----------8------|-5--------------|------------------|
B|-3----------5----------|----------8------|-5--------------|-2------5----s6---|
G|-2----------2----------|-5---------------|-2--------------|-2----------------|
D|----0-0-0-0----0-0-0-0-|-5---------------|-2--------------|-2------2----s3---|
A|-----------------------|-----------------|----------------|-4----------------|
E|-----------------------|-----------------|----------------|------------------|

Intro Riff: x1

Verse:

Pre-Chorus:

Chorus:

Verse: (guitar solo)

Pre-chorus (modified):

e|-----------5--------|-----------------|------------------|-------------------|
B|-----------3--------|-----------------|------------------|-------------------|
G|--------------------|------------12---|------------------|-------------------|
D|--------------------|-10---------10---|------------------|--------------8-s7-|
A|-5------------------|-8---------------|-8-s7------7------|-5-s7------7-------|
E|-3------------------|-----------------|-6-s5--5-5-5------|-3-s5--5-5-5--6-s5-|

e|-----------5--------|-----------------|------------------|-------------------|
B|-----------3--------|-----------------|------------------|-------------------|
G|--------------------|------------12---|------------------|-------------------|
D|--------------------|-10---------10---|------------------|-------------------|
A|-5------------------|-8---------------|-8-s7------7------|-5-s7------7-------|
E|-3------------------|-----------------|-6-s5--5-5-5------|-3-s5--5-5-5-------|

e|--------------------|-----------------|------------------|-------------------|
B|-12--11-------------|-----------------|-12--11-----------|-2---------5--s6---|
G|-10--9--------------|-----------------|-10--9------------|-2-----------------|
D|-8---7--------------|-----------------|-8---7------------|-2---------2--s3---|
A|--------------------|-----------------|------------------|-4-----------------|
E|--------------------|-----------------|------------------|-------------------|

Chorus (modified):

e|-----------------------|---------3----|-----------------------|-6-----8---s6-|
B|-3----------5----------|---------3----|-3----------5----------|-6------------|
G|-2----------2----------|---------0----|-2----------2----------|-3-----5---s3-|
D|----0-0-0-0----0-0-0-0-|--------------|----0-0-0-0----0-0-0-0-|--------------|
A|-----------------------|--------------|-----------------------|--------------|
E|-----------------------|-3------------|-----------------------|--------------|
             "Sinister     Double..."

e|-----------------------|-----------8-------|-5------------|------------------|
B|-3----------5----------|-----------8-------|-5------------|-2------5----s6---|
G|-2----------2----------|-5-----------------|-2------------|-2----------------|
D|----0-0-0-0----0-0-0-0-|-5-----------------|-2------------|-2------2----s3---|
A|-----------------------|-------------------|--------------|-4----------------|
E|-----------------------|-------------------|--------------|------------------|


e|-----------------------|---------3----|-----------------------|-6------------|
B|-3----------5----------|---------3----|-3----------5----------|-6------------|
G|-2----------2----------|---------0----|-2----------2----------|-3------------|
D|----0-0-0-0----0-0-0-0-|--------------|----0-0-0-0----0-0-0-0-|--------------|
A|-----------------------|--------------|-----------------------|--------------|
E|-----------------------|-3------------|-----------------------|--------------|
             "Sinister     Double..."

e|-----------------------|-----------8---------|-5---------------------|
B|-3----------5----------|-----------8---------|-5---------------------|
G|-2----------2----------|-5-------------------|-2---------------------|
D|----0-0-0-0----0-0-0-0-|-5-------------------|-2---------------------|
A|-----------------------|---------------------|-----------------------|
E|-----------------------|---------------------|-----------------------|

"Triplets"
e|--------------------------------------|
B|-11-p10-------------------------------|
G|--------12-10-s9----------------------|
D|-----------------12-10-p8-------------|
A|--------------------------12-10-p8----|
E|-----------------------------------12-|


e|------------------------|-------3----|-----------------------|-6----8---s6---|
B|-------------5----------|-------3----|-3----------5----------|-6-------------|
G|-------------2----------|-------0----|-2----------2----------|-3----5---s3---|
D|-----0-0-0-0----0-0-0-0-|------------|----0-0-0-0----0-0-0-0-|---------------|
A|------------------------|------------|-----------------------|---------------|
E|-10---------------------|-3----------|-----------------------|---------------|
              "Sinister     Double..."

e|-----------------------|----------8-----|------------------|-----------------|
B|-3----------5----------|----------8-----|------------------|-----------------|
G|-2----------2----------|-5--------------|------------------|-----------------|
D|----0-0-0-0----0-0-0-0-|-5--------------|------------------|-----------------|
A|-----------------------|----------------|-8-s7------7------|-5-s7------7-----|
E|-----------------------|----------------|-6-s5--5-5-5------|-3-s5--5-5-5-----|


e|-------------------|-------------------|------------------|---------------|
B|-------------------|-------------------|-6----------------|-3-------------|
G|-------------------|----------7--6-----|----------2-------|-2-------------|
D|-------------------|-8--7-----------7--|----------2-------|-0-------------|
A|----------8--7-----|-------------------|----------4-------|---------------|
E|-6--5--------------|-------------------|------------------|---------------|End


Guitar Fill 1 (verse):

Play this chord with the same technique as the intro section.
e|-----------------------|
B|--10-------------------|
G|--10-------------------|
D|-----------------------|
A|-----------------------|
E|-----------------------|

Guitar Fill 2 (verse):

  "Half Rest"                        "Full Tone Bend"
e|--------------10-------------------|---------------------|
B|-----------------13-p10------------|-13-(15)-------------|
G|------------------------13-s12-p10-|---------------------|
D|-----------------------------------|---------------------|
A|-----------------------------------|---------------------|
E|-----------------------------------|---------------------|

Tablature Legend: h = hammer-on
                  p = pull-off
                  s = slide

Tablature by NightStalker297

  Visit MetalTabs.com for more metal tablature

bottom separator

Contact Us | Privacy Policy | Disclaimer
Copyright © 2001-2014 MetalTabs.com. All Rights Reserved.