top separator

Home

Forum

What's New

Submit a Tab

FAQ

Links

Contact Us

Link to Us

MetalTabs.com logo

Bands

0-9

A

B

C

D

E

F

G

H

I

J

K

L

M

N

O

P

Q

R

S

T

U

V

W

X

Y

Z

Search

What

Where
 

Suffocation - "Seeds Of The Suffering" Guitar Tab

Plain Text Version
More Suffocation Tabs

Hits: 5442
Rated: 4.67 out of 5 (6 votes)
Updated: 2007-11-28 23:32:00

 

By:

Sycophant

sendpm.gif

email.gif

Important note
This tab is available online because we obtained explicit permission from Suffocation or their label.


#----------------------------------PLEASE NOTE---------------------------------#
#This file is the author's own work and represents their interpretation of the #
#song. You may only use this file for private study, scholarship, or research. #
#Unless specified otherwise, this is NOT an official tab from the band members.#
#------------------------------------------------------------------------------#

  Visit MetalTabs.com for more metal tablature
  
Author/Artist: Suffocation
Title: Seeds Of The Suffering
Album: Effigy Of The Forgotten [1991 Roadrunner]
Transcribed by: Greg D. [Sycophant]
Email: starkravinglunacy@hotmail.com

Tune To C.
. = palm mute
^ = pinch harmonic
Tremelo pick where applicable.

0:00 - 0:17 & 0:19 - 0:27
Both Guitars                       end 1
----------------------------------|----------------------------------|
----------------------------------|----------------------------------|
----------------------------------|----------------------------------|
----------------------------------|--------------------------------1-|
--------------------3-2-----------|--------------------2---3---2-----|
-2222222222222220-1-----0-1-3-4-3-|-2222222222222220-1---1---1---0---|
                        . . . . .                    . . . . . . .

end 2
----------------------------------||
----------------------------------||
----------------------------------||
-----------------3------3---2-----||
-222-222-2-2-222---44-----4---3-2-||
-000-000-0-0-000-----5------------||
 ... ... . . ...   ...    .   . .


0:17 - 0:19 Guitar 1                0:27 - 0:30 Guitar 1
----------------------------------||----------------------------------||
----------------------------------||----------------------------------||
----------------------------------||----------------------------------||
-----------------3------3---2-----||----------------------------------||
-4------2---3------44-----4---3-2-||-2--2-----------------------5-6-5-||
-2------0---1--------5------------||-0--0-----------------------3-4-3-||
        .          ...    .   . .                               . . .

0:17 - 0:19 Guitar 2                0:27 - 0:30 Guitar 2
----------------------------------||----------------------------------||
----------------------------------||----------------------------------||
----------------5-------5---4-----||----------------------------------||
-------------------66-----6---5-4-||----------------------------------||
-4------2---3--------7------------||-2-222--3-2-3--2-222--3-2-3-5-6-5-||
-2------0---1---------------------||-0-000--1-0-1--0-000--1-0-1-3-4-3-||
        .          ...    .   . .    . ...    .    . ...  . . . . . .


0:30 - 0:37 Guitar 1               0:37 - 0:39 Guitar 1
----------------------------------|-------------------------||
----------------------------------|-------------------------||
----------------------------------|-----5-4-------4---3---4-||
----------------------------------|---4-----4-------3---2---||
-2-222-3-2-3--2-222--3-2-3-5-6-5--|-3---------3-2-----------||
-0-000-1-0-1--0-000--1-0-1-3-4-3--|-------------------------||
 . ...   .    . ...  . . . . . .

0:30 - 0:37 Guitar 2               0:37 - 0:39 Guitar 2
----------------------------------|-------------------------||
----------------------------------|-------------------------||
----------------------------------|-----5-4-----------3---4-||
----------------------------------|---4-----4-----3-2---3---||
-2-222-3-2-3--2-222--3-2-3-5-6-5--|-3---------3-2-----------||
-0-000-1-0-1--0-000--1-0-1-3-4-3--|-------------------------||
 . ...   .    . ...  . . . . . .

0:39 - 0:50
Both Guitars                end 1 & 3                end 2, Guitar 1
---------------------------|------------------------|-------------------------
---------------------------|------------------------|-------------------------
---------------------------|--------------------5-4-|-----5-4-------4---3---4-
---------------------------|--2-4-5-4-2---2-1-2-----|---4-----4-------3---2---
-2-2222-3-2-3-222222-3-2-3-|2-----------3-----------|-3---------3-2-----------
-0-0000-1-0-1-000000-1-0-1-|------------------------|-------------------------
   ....   .   ......   .    . . . . . . . . . .
                                                     end2, Guitar 2
                                                    |-------------------------
                                                    |-------------------------
                                                    |-----8-7-------7---6---7-
                                                    |---7-----7-------6---5---
                                                    |-6---------6-5-----------
                                                    |-------------------------
0:50 - 0:52
---------------------------||
---------------------------||
---------------------------||
---------------------------||
-2-2222-3-2-3-222222-3-2-3-||
-0-0000-1-0-1-000000-1-0-1-||
   ....   .   ......   .


0:52 - 1:12 Both Guitars
------------------------------------------------------------------------------
------------------------------------------------------------------------------
----------------4-------3--------------------------1h2p1h2/4-3----------------
------------------6-------4-3------------4---3-2-3----------------------------
-4---2-3----2-3-----5-2-------4---2-3------2-------------------4---2-3----2-3-
-2---0-1----------------------2---0-1--------------------------2---0-1--------
     .      . .     . .   . .     .      . . . . .                 .      . .

                                               Guitar 2 starting @ 1:02
----------------------------------------------|-------------------------------
--------------------------------------------5-|-------------------------------
-4-------3-------------------5-6-p5p3---7-----|----------------7-------6------
---6-------4-3------------------------4---6---|------------------9-------7-6--
-----5-2-------4---2-5---2-3------------------|-4---2-3----5-6-----8-5--------
---------------2---0-3---0--------------------|-2---0-1-----------------------
     . .   . .     .     .                          .      . . . . . . . . .

1:12 - 1:39
Both Guitars                       end 1
----------------------------------|----------------------------------|
----------------------------------|----------------------------------|
----------------------------------|----------------------------------|
----------------------------------|--------------------------------1-|
--------------------3-2-----------|--------------------2---3---2-----|
-2222222222222220-1-----0-1-3-4-3-|-2222222222222220-1---1---1---0---|
                        . . . . .                    . . . . . . .

end 2
----------------------------------||
----------------------------------||
----------------------------------||
-----------------3------3---2-----||
-222-222-2-2-222---44-----4---3-2-||
-000-000-0-0-000-----5------------||
 ... ... . . ...   ...    .   . .


1:39 - 1:42                       1:42 - 1:46 (Guitar 2 comes in after rep 1)
--------------------------------||--------------------------------------------
------------------------------5-||--------------------------------------------
---------------5-6-p5p3---7-----||--------------------------------------------
------------------------4---6---||-----------------44443333-------------------
-4---2-5---2-3------------------||-----4444----------------5555---------------
-2---0-3---0--------------------||-3333----66665555------------5555-----------
     .     .                                                        x2

1:46 - 1:58 Both Guitars
------------------------------------------------------------------------------
------------------------------------------------------------------------------
------------------------------------------------------------------------------
-----------------22221111----4444----------------33332222---------------------
-----2222----------------2222--------2222----------------3322---------4444----
-1111----44443333----------------1111----44443333------------2222-3333----555-


------------------------------------------------------------------------------
------------------------------------------------------------------------------
------------------------------------------------------------------------------
--44443333------------------------44443333-------------------------22221111---
----------5555--------4444----------------5555---------2222----------------22-
-5------------55553333----55554444------------5555-1111----44443333-----------


                                         1:58 - 2:02 Both Guitars
---------------------------------------||------------------------------------|
---------------------------------------||------------------------------------|
---------------------------------------||---------------------22-------------|
---4444----------------33332222--------||-----6---------------11---------5---|
-22--------2222----------------3322----||-5---4---8-7---5-3-0-00-0-6---5-3---|
-------1111----44443333------------2222||-3-0-----6-5---3-1--------4-0-3-----|
                                            .     . .   . . . .. .   .

2:02 - 2:11                              2:11 - 2:14
---------------------------------------||-------------------------------------|
---------------------------------------||-------------------------------------|
---------------------------------------||---------------------22--------------|
---------------443333------------------||-----6---------------11---------5----|
-----4444------------5555--------3-4---||-5---4---8-7---5-3-0-00-0-6---5-3----|
-3333----554444----------44441-2-------||-3-0-----6-5---3-1--------4-0-3------|
                             . .     x4     .     . .   . . .    .   .

2:14 - 2:45                                               end1&3, g1    g2
---------------------------------------------------------|-----------|--------
---------------------------------------------------------|-----------|-^------
---------------------------------------------------------|-----------|-4b7----
---4-----5-----6---4-----5---4-----4-----5-----6---4-----|-3-------2-|--------
-3-2-4-5-3-4-5-4-3-2-4-5-3-5-2-4-3-2-4-5-3-4-5-4-3-2-4-5-|-----------|--------
-1---2-3---2-3---1---2-3---3---2-1---2-3---2-3---1---2-3-|---5-5-0---|--------
 .   . .   . .   .   . .   .   . .   . .   . .   .   . .     . . .


 end 2    2:45 - 2:53
---------|---------------------------------------------------------|
---------|---------------------------------------------------------|
---------|---------------------------------------------------------|
-6-----8-|---4-----5-----6---4-----5---4-----4-----5-----6---4-----|
-4-6-7-6-|-3-2-4-5-3-4-5-4-3-2-4-5-3-5-2-4-3-2-4-5-3-4-5-4-3-2-4-5-|
---4-5---|-1---2-3---2-3---1---2-3---3---2-1---2-3---2-3---1---2-3-|
 . . . .   . . . . . . . . . . . . . . . . . . . . . . . . . . . .


end 1       end 2      2:53 - 2:55
-----------|---------||--------------------------------------|
-----------|---------||--------------------------------------|
-5-------4-|---------||--------------------------------------|
-3-------2-|-6-----8-||--------------5---------------4-1-----|
-----------|-4-6-7-6-||---------2h4p2----------1h3p1-----3-0-|
---5-5-0---|---4-5---||-222-2-2--------0h1-1-1---------------|
 . . . .     . . . .               . .            . .


2:55 - 2:57                2:57 - 3:09
-------------------------||---------------------------------------------------
-------------------------||---------------------------------------------------
-------------------------||---------------------------------------------------
-------------------------||--------------5---------------4-1------------------
-3--2--5--6--3--2--5555--||---------2h4p2----------1h3p1-----3-0-----33332222-
-1--0--3--4--1--0--3555--||-22222222-------0h1-1-1---------------2222---------
                                               . .

---------------------|--------------------------------------------------------
---------------------|--------------------------------------------------------
---------------------|--------------------------------------------------------
-4444----------------|--------------5---------------4-1-----------------------
------5-/6---2-2--2--|---------2h4p2----------1h3p1-----3-0-------------------
------3-/4---0-0--0--|-22222222-------0h1-1-1---------------11110000333344441-
             . .  .                       . .

---------------------|--------------------------------------------------------
---------------------|--------------------------------------------------------
---------------------|--------------------------------------------------------
---------------------|--------------5--------------4-1-----------------4444---
---------------------|---------2h4p2---------1h3p1-----3-0-----33332222-------
-1110000333333333333-|-22222222------0h1-1-1---------------2222---------------
                                         . .

               3:09 - 3:16 & 3:24 - 3:31
-------------||---------------------------------------------------------------
-------------||---------------------------------------------------------------
-------------||----------------------------4----------------------------------
-------------||----------------------------2-5-4-4----------------------------
-5-/6---2-2--||-55555--4--4--255555--4--4----3-2-2-55555--4--4--255555--4--4--
-3-/4---0-0--||-333330-2--2--0333330-2--2----------333330-2--2--0333330-2--2--
        . .          .       .     .         . .                .


        3:16 - 3:24                                     end 1     end 2
------||-----------------------------------------------|---------|------------
------||-----------------------------------------------|---------|------------
------||-----------------------------------------------|-4-------|------------
-4--3-||-----------------------------------------------|-2-5-4-4-|-4--3-------
-2--1-||-55555--4-4-4-4-4-4-4-4-55555--4-4-4-4-4-4-4-4-|---3-2-2-|-2--1-------
------||-333330-2-2-2-2-2-2-2-2-333330-2-2-2-2-2-2-2-2-|---------|----1-------
              . . . . . . . . .      . . . . . . . . .     . .


3:31 - 3:34                       3:34 - 3:46
---------------------------------|--------------------------------------------
---------------------------------|--------------------------------------------
---------------------------------|--------------------------------------------
---------5\4---------5\4-----5\4-|--------------------------------------------
-222-222-3\2-222-333-3\2-222-3\2-|-------6-5------6-5------6-5---4---222-222--
-000-000-----000-111-----000-----|-3-333-----333------333------6---5-000-000--
 ... ...     ... ...     ...         ...     ...      ...      .   . ... ...


			   3:46 - 3:48
-------------------------||-----------------------------------||
-------------------------||-----------------------------------||
-------------------------||-----------------------------------||
-5\4---------5\4-----5\4-||-----------------------------------||
-3\2-222-333-3\2-222-3\2-||-------6-5------6-5------6-5---4---||
-----000-111-----000-----||-3-333-----333------333------6---5-||
     ... ...     ...          ...     ...      ...      .   .

3:48 - 4:04                          end 1
------------------------------------|--------------------------------------|
------------------------------------|--------------------------------------|
------------------------------------|--------------------------------------|
--------------5-------------4-1-----|--------------------------------------|
---------2h4p2---------1h3p1----3-0-|--------------------------------------|
-22222222-------0h1-1-1-------------|-111100003333444411110000333333333333-|
                    . .
end 2
----------------------------------||
----------------------------------||
----------------------------------|| repeat 3:31 - 3:48 section again
-------------4444-----------------|| then repeat 3:48 - 4:04 section again
-----33332222-----5-/6---2-2--2---||
-2222-------------3-/4---0-0--0---||
                         . .  .

4:37 - 4:53 Guitar 1
------------------------------------------------||
------------------------------------------------||
-4--------5--4--------4--3--------5--4----------||
-2--4--5--3--2--2--3--2--1--2--5--3--2--4--5--5-||
-2--2--3--3--2--0--1--2--1--0--3--3--2--2--3--4-||
----2--3--------0--1--------0--3--------2--3--4-||
    .  .        .  .        .  .        .  .  .

Guitar 2 @ 4:45 - 4:53
--------------------------------------||
--------------------------------------||
--------------------------------------||
-4--------3--------4--4-4----3---3----||
-2--------1--------2--2-2----1---1----||
-2--------1--------2--2-2----1---1----||


4:53 - 5:09
------------------------------------------------------------------------------
------------------------------------------------------------------------------
------------------------------------------------------------------------------
------------------------------------------------------------------------------
-------------3-3-2-2---------2-2-1-1---------3-3-2-2--------------------------
-0-0-2-2-3-3---------0-0-1-1---------0-0-3-3---------2-2-3-3-4-4--------------
 . . . . . . . . . . . . . . . . . . . . . . . . . . . . . . . . x2


Guitar 2 goes up 4 frets to do this harmony part @ 5:01 - 5:09
------------------------------------------------------------------------------
------------------------------------------------------------------------------
------------------------------------------------------------------------------
------------------------------------------------------------------------------
-------------7-7-6-6---------6-6-5-5---------7-7-6-6--------------------------
-4-4-6-6-7-7---------4-4-5-5---------4-4-7-7---------6-6-7-7-8-8--------------
 . . . . . . . . . . . . . . . . . . . . . . . . . . . . . . . . x2 harmony

5:09 - 5:24
------------------------------------------------||
------------------------------------------------||
------------------------------------------------||
----------5--4--------4--3--------5--4----------||
-2--4--5--3--2--2--3--2--1--2--5--3--2--4--5--6-||
-0--2--3--------0--1--------0--3--------2--3--4-||
 .  .  .  .  .  .  .  .  .  .  .  .  .  .  .  . x4

5:24 - 5:32
------------------------------------------------------------------------------
------------------------------------------------------------------------------
------------------------------------------------------------------------------
--------------5-----------5\4------------------5--------7---6\5------------5--
--------------3-----------3\2-4\3/4------------3--------5-0-4\3------------3--
-222222323p2p0--02223p2p0-----2\1/2-2222323p2p0--222222---------2222223p2p0---
                                                          .

                                       5:32 - 5:49
-------------------------------------||---------------------------------------
-------------------------------------||---------------------------------------
-------------------------------------||---------------------------------------
-----------5\4-----------------------||--------------5-----------5\4----------
-----------3\2-4\3/4------4----------||--------------3-----------3\2-4\3/4----
-33223p2p0-----2\1/2------2----------||-222222323p2p0--02223p2p0-----2\1/2----


end 1                         end 2                              5:49 - end
-----------------------------|---------------------------------||----------||
-----------------------------|---------------------------------||----------||
-----------------------------|---------------------------------||----------||
------------5--------7-0-6\5-|------------5--------------------||----------||
------------3--------5-0-4\3-|------------3----------2-3-4-5-4-||-4------4-||
-2222323p2p0--222222---------|-2222223p2p0---2-0-2-0-0-1-2-3-2-||-2------2-||
                       .                     . . . . . . . . .

  Visit MetalTabs.com for more metal tablature

bottom separator

Contact Us | Privacy Policy | Disclaimer | Legal Notice
Copyright © 2001-2014 MetalTabs.com. All Rights Reserved.