top separator

Home

Forum

What's New

Submit a Tab

FAQ

Links

Contact Us

Link to Us

MetalTabs.com logo

Bands

0-9

A

B

C

D

E

F

G

H

I

J

K

L

M

N

O

P

Q

R

S

T

U

V

W

X

Y

Z

Search

What

Where
 

Darkthrone - "Fuck Off And Die" Guitar Tab

Plain Text Version
More Darkthrone Tabs

Hits: 10623
Rated: 4.00 out of 5 (4 votes)
Updated: 2007-11-23 01:38:37

 

By:

sendpm.gif

email.gif

Important note
This tab is available online because we obtained explicit permission from Darkthrone or their label.


#----------------------------------PLEASE NOTE---------------------------------#
#This file is the author's own work and represents their interpretation of the #
#song. You may only use this file for private study, scholarship, or research. #
#Unless specified otherwise, this is NOT an official tab from the band members.#
#------------------------------------------------------------------------------#

  Visit MetalTabs.com for more metal tablature
  
Band:  DARKTHRONE
Album: F.O.A.D.
Song:  F.O.A.D.

Copyright (c) PEACEVILLE 2007
Version 1.0 - NOVEMBER 8 2007

Transcribed By: Ben Godby
Email:          beniliusbob@gmail.com


.  - palm mute           /  - slide up to
\  - slide down to       ~  - vibrato
h  - hammer on           b  - Bend
p  - pull off            Suffixes for bend
t  - tap                 f  - full bend    h - half bend
ph - pinched harmonic    q  - quarter bend t - tap bend
*  - see comment         ^  - Hold bend    r release bend
x  - Stuccatto           ~  - vibrato bend
,  - slight palm mute    () - ghost note, sustained note
"  - tremolo note        <> - Trill

Tune 1 step down - D G C F A D

Riff 1
|------------------------------|----|-----------------------------|
|------------------------------|----|-----------------------------|
|------------------------------|-x3-|-----------------------------|
|-6--4-6--4-6--9---------------|----|-----------------------------|
|-4--2-4--2-4--7--6--4-6--4--6-|----|-4--2-4--2-4--5--6--4-6--4-6-|
|-----------------4--2-4--2--4-|----|-2--0-2--0-2--3--4--2-4--2-4-|

Riff 2
|--------------------------------------------------|
|--------------------------------------------------|
|--------------------------------------------------|
|---4h5p4-5-7"-----4h5p4-8"-----4h5p4-7"---6-5-6-5-|
|----------------------------------------4-4-3-4-3-|
|-2--------------2------------2----------2---------|

Riff 3
A
|-----------------------------------|----------------------------------|
|-----------------------------------|----------------------------------|
|-----------------------------------|----------------------------------|
|---5-4"-4-5------------------------|---7-6"---7---"Fuck off and die!"-|
|--------------------5-4"-4-5-------|-5--------------------------------|
|-3----------3-3-3-3----------3-3-3-|----------------------------------|

END

  Visit MetalTabs.com for more metal tablature

bottom separator

Contact Us | Privacy Policy | Disclaimer | Legal Notice
Copyright © 2001-2014 MetalTabs.com. All Rights Reserved.