top separator

Home

Forum

What's New

Submit a Tab

FAQ

Links

Contact Us

Link to Us

MuSpy.com

MetalTabs.com logo

Bands

0-9

A

B

C

D

E

F

G

H

I

J

K

L

M

N

O

P

Q

R

S

T

U

V

W

X

Y

Z

Search

What

Where
 

Blotted Science - "REM" Guitar Tab

Plain Text Version
More Blotted Science Tabs

Hits: 5892
Rated: 5.00 out of 5 (1 vote)
Updated: 2008-02-24 23:42:49

 

By:

MetalThrashingMad

sendpm.gif

email.gif

Important note
This tab is available online because we obtained explicit permission from Blotted Science or their label.


#----------------------------------PLEASE NOTE---------------------------------#
#This file is the author's own work and represents their interpretation of the #
#song. You may only use this file for private study, scholarship, or research. #
#Unless specified otherwise, this is NOT an official tab from the band members.#
#------------------------------------------------------------------------------#

  Visit MetalTabs.com for more metal tablature
  
REM
                               By Blotted Science
                  From the 2007 Album THE MACHINATIONS OF DEMENTIA
                 Transcribed by Steve Rubaszek / MetalThrashingMad


Email - Steve - Thrasher502@hotmail.com    _______________________
                                          | KEY:                  |
Version - 1.1 - February 22, 2008         |                       |
                                          | h = hammer on         |
Song written by Blotted Science           |                       |
                                          | p = pull off          |
Tuning - All guitars are in standard      |_______________________|


 * Play synth intro A twice, and Synth intro B twice. Then do it again.
   The [Guitar intro] is played over this.

 * On the section from 0:30 to 0:32, and the section 0:52 to 0:56, Ron
   uses an octave pedal effect.

 * The low B string is only used on this song twice (first bar), so
   that's the only place that I included the extra line.


 Intro A - synth - 0:00
  4/4
|-----7---9---------|-8-14------10--------|-9-13-12----------------|
|-------8--------11-|------10-9-----------|---------11-13----------|
|-7-8-------10-9----|--------------8---12-|---------------11-14-13-|
|-------------------|----------------9----|------------------------|
|-------------------|---------------------|------------------------|
|-------------------|---------------------|------------------------|

 Intro B - synth
|----------14-------12-13-|----------------16-17----|------------------------|
|-15-13-14-------11-------|-14----12----15----------|-13-11-------12---12-16-|
|-------------------------|----12-------------------|----------------12------|
|-------------------------|----------13----------16-|-------14-15------------|
|-------------15----------|-------------------------|------------------------|
|-------------------------|-------------------------|------------------------|


 [Guitar intro start] - 0:05
  4/4
|---------|-------------------|------------------------|---------|
|---------|-------------------|------------------------|---------|
|---------|-------------------|------------------------|---------|
|---------|-------------------|-------------12-13------|------9--|
|---------|--------9-------12-|-11-12-11-11------------|---------|
|-2-3-----|--7-6-7------------|------------------------|---------|
|-0-1-----|-------------------|----------------------0-|---------|


 0:15
|---------------------|---------------|------|----------------------|----------|
|---------------------|---------------|------|----------------------|----------|
|-----------------10--|----------10-9-|-rest-|----------------------|----------|
|------11------11-----|-11----11------|------|----------------------|----------|
|---10------10--------|----10---------|------|-8-----8-----------9--|----------|
|---------------------|---------------|------|---0-0---0-0-0-7-8----|--4-5-4-4-|


 0:24
|------|-----------------------------------|----------------------|
|------|-----------------------------------|----------------------|
|-rest-|-----------------------------------|----------------------|
|------|-12h13-------------------11h15p11--|----------------------|
|------|-------14-10-14-10-14-10-----------|---9---------9--------|
|------|-----------------------------------|-----0-8-7-8------8-7-|


|---------|---------------|------------------|
|---------|---------------|------------------|
|---------|---------------|------------------|
|---------|---------------|------------------|
|---9-----|-------9-------|-----9-----12-11--|
|-8---8-7-|-8-7-8---8-7-8-|-7-8--------------|


 0:30
|-----------------------|-------------------------------------|
|-----------------------|-------------------------------------|
|-----------------------|-------------------------------------|
|-----------------6h7-6-|-6h7-6-6----------------6h7----------|
|-----------------------|-------------------------------------|
|----10h11-10-10--------|------------10h11-10-10------4h5-4-4-|


                                                [Guitar intro end]
|-------------------------|---------|-----------------------------|
|-------------------------|---------|-----------------------------|
|-------------------------|---------|-----------------------------|
|-------------------------|---------|---13-0-0-13-0-0-13p9----11--|
|-------5-----------------|------5--|----------------------10-----|
|-4-5-4---4-4-5-----4-5-4-|-4--4----|-----------------------------|


 0:37
                                     5/8
|-----------------------------------|-----------------------| ____
|-----------------------------------|-----------------------|     |
|-----------------------------------|-----------------------|   play
|-----------------------------------|-----------------------|    twice
|---------------------9-------------|-----------------------| ____|
|-13-0-0-13-0-0-8-7-8---8-7-0-0-1-0-|-13-0-0-13-0-0-7-8-7-0-|


 4/4                                 5/8
|-----------------------------------|-------------------|
|-----------------------------------|-------------------|
|-----------------------------------|-------------------|
|-----------------------------------|-------------------|
|---------------------9-------------|-------------------|
|-13-0-0-13-0-0-8-7-8---8-7-0-0-1-0-|-13-0-0-13-0-0-7-8-|


 0:46
  3/4                      2/4
|-------------------------|-----------------| ___
|-------------------------|-----------------|    |
|-------------------------|-----------------|   play
|-------------------------|-----------------|    twice
|-----------------5-------|-----------------| ___|
|-4h5-4-4---4-5-4---4-4h5-|-4h5-4-4---4-4h5-|


 3/4                       2/4
|-------------------------|--------------|
|-------------------------|--------------|
|-------------------------|--------------|
|-------------------------|--------------|
|-----------------5-------|--------------|
|-4h5-4-4---4-5-4---4-4h5-|-4h5-4-4---4--|


 0:52
  3/4                        2/4
|---------------------------|---------------------| ___
|---------------------------|---------------------|    |
|---------------------------|---------------------|   play
|-------------6h7-6-6h7-6-6-|-------------6h7p6p0-|    twice
|---------------------------|---------------------| ___|
|-10h11-10-10---------------|-10h11-10-10---------|


 0:56
  4/4                                3/4
|-----------------------------------|-------------------------|
|-----------------------------------|-------------------------|
|-8p4-0-4-0-4-0-6-10p6-0-6-10p6-0-6-|-8p4-0-4-0-4-8p4-0-4-0-4-|
|-----------------------------------|-------------------------|
|-----------------------------------|-------------------------|
|-----------------------------------|-------------------------|


 5/8                     4/4
|-----------------------|------------------------------|
|-----------------------|------------------------------|
|-0-6-10p6-0-6-10p6-0-6-|-8p4-0-4-0-4-8p4-0-4-0-4-0-6--|
|-----------------------|------------------------------|
|-----------------------|------------------------------|
|-----------------------|------------------------------|


 1:02
  4/4                                5/8
|-----------------------------------|-----------------------| ____
|-----------------------------------|-----------------------|     |
|-----------------------------------|-----------------------|   play
|-----------------------------------|-----------------------|    twice
|---------------------9-------------|-----------------------| ____|
|-13-0-0-13-0-0-8-7-8---8-7-0-0-1-0-|-13-0-0-13-0-0-7-8-7-0-|


  4/4                                5/8
|-----------------------------------|-------------------|
|-----------------------------------|-------------------|
|-----------------------------------|-------------------|
|-----------------------------------|-------------------|
|---------------------9-------------|-------------------|
|-13-0-0-13-0-0-8-7-8---8-7-0-0-1-0-|-13-0-0-13-0-0-7-8-|

END

  Visit MetalTabs.com for more metal tablature

bottom separator

Contact Us | Privacy Policy | Disclaimer | Legal Notice
Copyright © 2001-2014 MetalTabs.com. All Rights Reserved.