top separator

Home

Forum

What's New

Submit a Tab

FAQ

Links

Contact Us

Link to Us

MuSpy.com

MetalTabs.com logo

Bands

0-9

A

B

C

D

E

F

G

H

I

J

K

L

M

N

O

P

Q

R

S

T

U

V

W

X

Y

Z

Search

What

Where
 

Sword - "F.T.W." Guitar Tab

Plain Text Version
More Sword Tabs

Hits: 2359
Updated: 2007-11-23 01:34:48

 

By:

nightstalker297

sendpm.gif

email.gif

Important note
We did our best to reach Sword and ask for their permission to publish this tab. Unfortunately they did not respond to our requests or we could not find a way to contact them. This tab is available online until Sword tells us to take it down.


#----------------------------------PLEASE NOTE---------------------------------#
#This file is the author's own work and represents their interpretation of the #
#song. You may only use this file for private study, scholarship, or research. #
#Unless specified otherwise, this is NOT an official tab from the band members.#
#------------------------------------------------------------------------------#

  Visit MetalTabs.com for more metal tablature
  
F.T.W
      (From the album "Metalized"  Aquarius 1986)

Music & Lyrics: Sword

Tuning: Tune all the strings down one half-step: eb
                                                 Bb
                                                 Gb
                                                 Db
                                                 Ab
                                                 Eb

Classic song by Sword from their debut album "Metalized".
This is the rhythm guitar part played by Mike Plant
throughout the song. Enjoy!!!

Intro:
                                    ---------------------------------------
(repeating pattern)                | 1.
e|---------------------------------|---------------------------------------|
B|---------------------------------|---------------------------------------|
G|---------------------------------|---------------------------------------|
D|-----7-7-5-5-4-4-5-5-4-4---------|-----7-7-5-5-4-4-5-5-4-4---------------|
A|-7-7---------------------7-7-5-5-|-7-7---------------------7-------------|
E|---------------------------------|---------------------------------------| x6

  ---------------------------------
 | 2.
e|---------------------------------|
B|---------------------------------|
G|---------------------------------|
D|-----7-7-5-5-4-4-5-5-4-4-7-------|
A|-7-7---------------------5-------|
E|---------------------------------|

(chords under repeating pattern)
e|---------------------------------|---------------------------------------|
B|---------------------------------|---------------------------------------|
G|---------------------------------|---------------------------------------|
D|-9-------------------------------|---------------------------------------|
A|-7-------------------------------|---------------------------------------|
E|---------------------------------|---------------------------------------|

e|---------------------------------|---------------------------------------|
B|---------------------------------|---------------------------------------|
G|---------------------------------|---------------------------------------|
D|-5-------------------------------|---------------------------------------|
A|-3-------------------------------|---------------------------------------|
E|---------------------------------|---------------------------------------|

e|---------------------------------|---------------------------------------|
B|---------------------------------|---------------------------------------|
G|-2-------------------------------|---------------------------------------|
D|-2-------------------------------|---------------------------------------|
A|-0-------------------------------|---------------------------------------|
E|---------------------------------|---------------------------------------|

e|---------------------------------|---------------------------------------|
B|-5-------------------------------|---------------------------------------|
G|-4-------------------------------|---------------------------------------|
D|-2-------------------------------|----------------------------------7----|
A|-2-------------------------------|----------------------------------5----|
E|-0-------------------------------|---------------------------------------|

e|---------------------------------|---------------------------------------|
B|---------------------------------|---------------------------------------|
G|---------------------------------|---------------------------------------|
D|-5-------------------------------|----------------------------------4----|
A|-3-------------------------------|----------------------------------2----|
E|---------------------------------|---------------------------------------|

e|---------------------------------|---------------------------------------|
B|---------------------------------|---------------------------------------|
G|-2-------------------------------|---------------------------------------|
D|-2--------------------------5----|-7--------------------------------7----|
A|-0--------------------------3----|-5--------------------------------5----|
E|---------------------------------|---------------------------------------|

e|-----------------------------|-------------------------------------------|
B|-----------------------------|-------------------------------------------|
G|-----------------------------|-------------------------------------------|
D|-9-----------------------7---|-9-----------------------7-----------------|
A|-7-----------------------5---|-7-----------------------5-----------------|
E|-----0-0-0---0-0-0---0-0-----|-----0-0-0---0-0-0---0-0-------------------|

e|---------------------------------|---------------------------------------|
B|---------------------------------|---------------------------------------|
G|---------------------------------|---------------------------------------|
D|-9-----------7---9---------------|-------------------------7-------------|
A|-7-----------5---7---------------|-------------------------5-------------|
E|-----0-0-0-----------0-0-0---0-0-|-0---0-0-0---0-0-0---0-0---------------| x2

e|-------------------------------|
B|-------------------------------|
G|-------------------------------|
D|-----4-------4-5-7---5--p4---7-|
A|-7-------7-------------------5-|
E|-------------------------------|

Verse:
e|------------------------------|------------------------------------------|
B|------------------------------|------------------------------------------|
G|------------------------------|------------------------------------------|
D|-9-------9-------9-------9--4-|-5-------5-------5-------5----------------|
A|-7---7-7-7---7-7-7---7-7-7--2-|-3---3-3-3---3-3-3---3-3-3--5-------------|
E|------------------------------|----------------------------3-------------|

e|------------------------------|------------------------------------------|
B|------------------------------|------------------------------------------|
G|------------------------------|------------------------------------------|
D|----------------------------7-|-5-------5-------5-------5-s7-------------|
A|-4-------4-------4-------4--5-|-3---3-3-3---3-3-3---3-3-3-s5-------------|
E|-2---2-2-2---2-2-2---2-2-2----|------------------------------------------| x4

Chorus:
e|--------------------------|----------------------------------------------|
B|--------------------------|----------------------------------------------|
G|--------------------------|----------------------------------------------|
D|-9-------------12---12----|-7-------------12--7--------------------------|
A|-7-------------10---9-----|-5-------------9---5--------------------------|
E|--------------------------|----------------------------------------------|
                Follow the wheels...
e|--------------------------|----------------------------------------------|
B|--------------------------|----------------------------------------------|
G|--------------------------|----------------------------------------------|
D|-9-------------12---12----|-7-------------14---12---12-------------------|
A|-7-------------10---9-----|-5-------------12---10---9--------------------|
E|--------------------------|----------------------------------------------| x2

e|-------------------------------|
B|-------------------------------|
G|-------------------------------|
D|-----4-------4-5-7---5--p4-----|
A|-7-------7-------------------5-|
E|-------------------------------|

Interlude:
e|--------------------------------|----------------------------------------|
B|--------------------------------|----------------------------------------|
G|------------------------------4-|-5----------------------------5---------|
D|-----4-h5-----4-h5-----4-h5-----|-----4-h5-----4-h5-----4-h5-------------|
A|-7--------7--------7--------7---|----------7--------7--------7-----------|
E|--------------------------------|----------------------------------------|
--
e|--------------------------------|----------------------------------------|
B|--------------------------------|----------------------------------------|
G|-6----------------------------6-|-5--------------------------------------|
D|-----4-h5-----4-h5-----4-h5-----|-----4-h5-----4-h5-7-p5-h7---5-p4-------|
A|----------7--------7--------7---|----------7-----------------------7-5---|
E|--------------------------------|----------------------------------------| x2

e|-------------------------------------|-----------------------------------|
B|-------------------------------------|-5---------------------------------|
G|---------------------4-h5-p4----4-h7-|-----------------------------------|
D|-----4-------4-5-7-------------------|----------------------------7------|
A|-7-------7---------------------------|----------------------------5------|
E|-------------------------------------|-----------------------------------|

e|-----------------------------|-------------------------------------------|
B|-----------------------------|-------------------------------------------|
G|-----------------------------|-------------------------------------------|
D|-9-----------------------7---|-9-----------------------7-----------------|
A|-7-----------------------5---|-7-----------------------5-----------------|
E|-----0-0-0---0-0-0---0-0-----|-----0-0-0---0-0-0---0-0-------------------|

e|---------------------------------|---------------------------------------|
B|---------------------------------|---------------------------------------|
G|---------------------------------|---------------------------------------|
D|-9-----------7---9---------------|-------------------------7-------------|
A|-7-----------5---7---------------|-------------------------5-------------|
E|-----0-0-0-----------0-0-0---0-0-|-0---0-0-0---0-0-0---0-0---------------|

e|-------------------------------|
B|-------------------------------|
G|-------------------------------|
D|-----4-------4-5-7---5--p4---7-|
A|-7-------7-------------------5-|
E|-------------------------------|

Verse:

Chorus:

Guitar Solo Chords:
e|--------------------------|----------------------------------------------|
B|--------------------------|----------------------------------------------|
G|--------------------------|----------------------------------------------|
D|-9-------------12---12----|-7-------------12--7--------------------------|
A|-7-------------10---9-----|-5-------------9---5--------------------------|
E|--------------------------|----------------------------------------------|

e|--------------------------|----------------------------------------------|
B|--------------------------|----------------------------------------------|
G|--------------------------|----------------------------------------------|
D|-9-------------12---12----|-7-------------14---12---12-------------------|
A|-7-------------10---9-----|-5-------------12---10---9--------------------|
E|--------------------------|----------------------------------------------| x2

e|-----------------------------|-------------------------------------------|
B|-----------------------------|-------------------------------------------|
G|-----------------------------|-------------------------------------------|
D|-9-------------------12---12-|-7-------------------12---12---------------|
A|-7---7-7-7---7-7-7---10---9--|-5---5-5-5---5-5-5---10---9----------------|
E|-----------------------------|-------------------------------------------|

e|-----------------------------|-------------------------------------------|
B|-----------------------------|-------------------------------------------|
G|-----------------------------|-------------------------------------------|
D|-9-------------------12---12-|-7-----------------------------------------|
A|-7---7-7-7---7-7-7---10---9--|-5---5-5-5---5-5-5---7---5---5-------------|
E|-----------------------------|---------------------5---3---2-------------|

e|-----------------------------|-------------------------------------------|
B|-----------------------------|-------------------------------------------|
G|-----------------------------|-------------------------------------------|
D|-2-------------------12---12-|-7-------------------12---12---------------|
A|-2-------------------10---9--|-5---5-5-5---5-5-5---10---9----------------|
E|-0---0-0-0---0-0-0-----------|-------------------------------------------|

e|-----------------------------|-------------------------------------------|
B|-----------------------------|-------------------------------------------|
G|-----------------------------|-------------------------------------------|
D|-9-------------------12---12-|-7-------------------14---12---12----------|
A|-7---7-7-7---7-7-7---10---9--|-5---5-5-5---5-5-5---12---10---9-----------|
E|-----------------------------|-------------------------------------------|

e|-------------------------------|
B|-------------------------------|
G|-------------------------------|
D|-----4-------4-5-7---5--p4-----|
A|-7-------7-------------------5-|
E|-------------------------------|

Interlude:
e|--------------------------------|----------------------------------------|
B|--------------------------------|----------------------------------------|
G|------------------------------4-|-5----------------------------5---------|
D|-----4-h5-----4-h5-----4-h5-----|-----4-h5-----4-h5-----4-h5-------------|
A|-7--------7--------7--------7---|----------7--------7--------7-----------|
E|--------------------------------|----------------------------------------|

e|--------------------------------|----------------------------------------|
B|--------------------------------|----------------------------------------|
G|-6----------------------------6-|-5--------------------------------------|
D|-----4-h5-----4-h5-----4-h5-----|-----4-h5-----4-h5-7-p5-h7---5-p4-------|
A|----------7--------7--------7---|----------7-----------------------7-5---|
E|--------------------------------|----------------------------------------| x4

Chorus:

Finale:
e|-----------------------------|-------------------------------------------|
B|-----------------------------|-------------------------------------------|
G|-----------------------------|-------------------------------------------|
D|-9-------------------12---12-|-7-------------------12---12---------------|
A|-7---7-7-7---7-7-7---10---9--|-5---5-5-5---5-5-5---10---9----------------|
E|-----------------------------|-------------------------------------------|

e|-----------------------------|-------------------------------------------|
B|-----------------------------|-------------------------------------------|
G|-----------------------------|-------------------------------------------|
D|-9-------------------12---12-|-7-----------------------------------------|
A|-7---7-7-7---7-7-7---10---9--|-5---5-5-5---5-5-5---7---5---5-------------|
E|-----------------------------|---------------------5---3---2-------------|

e|-----------------------------|-------------------------------------------|
B|-----------------------------|-------------------------------------------|
G|-----------------------------|-------------------------------------------|
D|-2-------------------12---12-|-7-------------------12---12---------------|
A|-2-------------------10---9--|-5---5-5-5---5-5-5---10---9----------------|
E|-0---0-0-0---0-0-0-----------|-------------------------------------------|

e|-----------------------------|-------------------------------------------|
B|-----------------------------|-------------------------------------------|
G|-----------------------------|-------------------------------------------|
D|-9-------------------12---12-|-7-------------------14---12---12----------|
A|-7---7-7-7---7-7-7---10---9--|-5---5-5-5---5-5-5---12---10---9-----------|
E|-----------------------------|-------------------------------------------|

e|-------------------------------|-----------------------------------------|
B|-------------------------------|-----------------------------------------|
G|-------------------------------|-----------------------------------------|
D|-----4-------4-5-7---5--p4---7-|-9---------------------------------------|
A|-7-------7-------------------5-|-7---------------------------------------|
E|-------------------------------|-----------------------------------------| End

Tablature Legend: h = hammer-on
                  p = pull-off
                  s = slide

Tablature by NightStalker297

  Visit MetalTabs.com for more metal tablature

bottom separator

Contact Us | Privacy Policy | Disclaimer | Legal Notice
Copyright © 2001-2014 MetalTabs.com. All Rights Reserved.