top separator

Home

Forum

What's New

Submit a Tab

FAQ

Links

Contact Us

Link to Us

MuSpy.com

MetalTabs.com logo

Bands

0-9

A

B

C

D

E

F

G

H

I

J

K

L

M

N

O

P

Q

R

S

T

U

V

W

X

Y

Z

Search

What

Where
 

Crucified Barbara - "Play Me Hard (The Bachelorís Guitar)" Guitar Tab

Plain Text Version
More Crucified Barbara Tabs

Hits: 8532
Rated: 2.20 out of 5 (5 votes)
Updated: 2007-11-23 01:34:10

 

By:

sendpm.gif

email.gif

Important note
This tab is available online because we obtained explicit permission from Crucified Barbara or their label.


#----------------------------------PLEASE NOTE---------------------------------#
#This file is the author's own work and represents their interpretation of the #
#song. You may only use this file for private study, scholarship, or research. #
#Unless specified otherwise, this is NOT an official tab from the band members.#
#------------------------------------------------------------------------------#

  Visit MetalTabs.com for more metal tablature
  
Band:           Crucified Barbara
Song:           Play me Hard
Album:          In distorsion we trust
Tabed by:       Hugues_60
E-mail:         hugues_60@hotmail.com


For corrections, suggest, mistakes..... please mail me.


Thanks to metaltabs.
Now this is the tab

Tune:           (D)



				 V^V^                 x3        let ring
|--------------------------------------|---------------|---------------|
|--------------------------------------|---------------|---------------|
|--9----7----5----4----7----9----99X9--|--4--7--9-99X9-|--4--7--9------|
|--9----7----5----4----7----9----99X9--|-X4--7--9-99X9-|-X4--7--9------|
|--7----5----3----2----5----7----77X7--|-X2--5--7-77X7-|-X2--5--7------|
|--------------------------------------|---------------|---------------|


	               V^V^ x4 V ^ V ^  x4
|------------------|------|----------|-----------------------------------------|
|------------------|------|----------|-----------------------------------------|
|-X-9---7---4---7--|-9999-|-12121212-|--4-XXXX-5-XXXX-4------------------------|
|-X-9---7---4---7--|-9999-|-12121212-|-X5-XXXX-5-XXXX-4------------------------|
|-X-7---5---2---5--|-7777-|-10101010-|-X3-XXXX-3-XXXX-2-0-2-2-2-0-2-2-2-0-2-2-2|
|------------------|------|----------------------------------------------------|

                                                              let ring
|---------------------------------------------------------------------------|
|---------------------------------------------------------------------------|
|------------------------------------------------------------4--------------|
|------------------------------------------------------------4--------------|
|------------------------------------------------------------2--------------|
|-0-0-3-0-3---0-0-0-(0)-3-0-3-5-0---0-0-3-0-3----0-0-3-0-3-5----------------|

                                     v^v^                           x3
|-------------------------------------|-------------------------|-------------|
|-------------------------------------|-------------------------|-------------|
|-4-------------------4--4---XXXX-(?)-|-9-11-7------------------|-9-11-7------|
|-4-------------------4--4---XXXX-(?)-|-9-11-7------------------|-9-11-7------|
|-2-0-2-2-2-0-2-2-(2)-2--2---XXXX-(?)-|-7-9--5------------------|-7-9--5------|
|-------------------------------------|----------0-3-5-7-0---00-|--------0000-|


                  x2                                  Bass
|------------------|---------------------------------|-----|--------------|
|------------------|---------------------------------|-----|--------------|
|--9-7--7-7-7------|-9--11--------9-11-7-------------|-----|-(12)/4---7---|
|--9-7--7-7-7------|-9--11--------9-11-7-----------1-|-----|-(12)/4---7---|
|--7-5--5-5-5------|-7--9---------7-9--5-----------1-|-----|-(10)/2---5---|
|-------------0000-|---------0000----------0-3-5-7-0-|-----|--------------|

                                                    x3                 x2
|--------------------------|-------------------------|------------------|
|--------------------------|-------------------------|------------------|
|--4-----------------------|-9-11-7------------------|--9-7--7-7-7------|
|--4-----------------------|-9-11-7------------------|--9-7--7-7-7------|
|--2-0-2-2-2-0-2-2-2-------|-7-9--5------------------|--7-5--5-5-5------|
|---------------------0000-|----------0-3-5-7-0---00-|-------------0000-|

                                                     x2
|--------------|---------------|-----------------------|-------|--------|
|--------------|---------------|-----------------------|-------|--------|
|--9-7--7-7-7--|-----4---------|-9-11-7----------------|-9-11--|--------|
|--9-7--7-7-7--|-5---4---------|-9-11-7----------------|-9-11--|--------|
|--7-5--5-5-5--|-5---2---------|-7-9--5----------------|-7-9---|--------|
|--------------|-3--------0000-|----------0-3-5-7-0-00-|-------|--------|

|--------------------------|---------------------|----------------------|
|--------------------------|---------------------|----------------------|
|------9-11-7--------------|--7-7----5-5----7-7--|--XX/-----------------|
|------9-11-7------------1-|--7-7----5-5----7-7--|--XX/-----------------|
|------7-9--5------------1-|--5-5----3-3----5-5--|--XX/-----------------|
|-0000-----------0-3-5-7-0-|---------------------|----------------------|


		repeat while solo                            let ring
|---------------------------------|-------------------------------------|
|---------------------------------|-------------------------------------|
|---------------------------------|-------------------------------------|
|---------------------------------|--------------------------1-----1----|
|---------------------------------|--------------------------1-----1----|
|-0-0-3-0-3---0-0-0-(0)-3-0-3-5-0-|-0-0-3-0-3----0-0-3-0-3-5-0-----0----|

                        x3                                      x6          End
|-----|-----------------|--------------|----------------------|---------------|
|-----|-----------------|--------------|----------------------|---------------|
|-X/--|------9-7--7-7-7-|-----4--------|-9-11-7---------------|-9-11-4--------|
|-X/--|------9-7--7-7-7-|-5---4--------|-9-11-7---------------|-9-11-7----1---|
|-X/--|------7-5--5-5-5-|-5---2--------|-7-9--5---------------|-7-9--5----1---|
|-----|-0000------------|-3-------0000-|---------0-3-5-7-0-00-|-----------0---|


Solo (probably 2 guitars) With Wha (& strange sound)

   V ^  V ^ V  ^                                    Wha     x4
|--1212-151515-12-----15---14-12------------------|----------|---------------|
|--1212-151515-12----------------15-12------------|-10b-rb-8-|--------12~----|
|----------------------------------------14b-rb-12|----------|-9------12~----|
|-------------------------------------------------|-14-------|----/14--------|
|-------------------------------------------------|----------|---------------|
|-------------------------------------------------|----------|---------------|

|----------------------------------------------------------------------------|
|-------------------(12)------------(12)-----------(12)----------------------|
|--------------------12~-------------12~------------12~----------------------|
|---------------12-14---14------12-14--14------12-14---14--------------------|
|--12121212--14---------------14-------------14------------------------------|
|----------------------------------------------------------------------------|
pm ........

                                                         x3
|---------------------------------|----------|------------|--------------|
|-----------------------10b-rb-8--|-10b-rb(8)|----8p7---7-|--------------|
|--7-/-9-9-/4-4-/-7-7-------------|----------|--------9---|--------------|
|---------------------------------|----------|------------|--------------|
|---------------------------------|----------|------------|--------------|
|---------------------------------|----------|------------|--------------|

  Visit MetalTabs.com for more metal tablature

bottom separator

Contact Us | Privacy Policy | Disclaimer | Legal Notice
Copyright © 2001-2014 MetalTabs.com. All Rights Reserved.