top separator

Home

Forum

What's New

Submit a Tab

FAQ

Links

Contact Us

Link to Us

MetalTabs.com logo

Bands

0-9

A

B

C

D

E

F

G

H

I

J

K

L

M

N

O

P

Q

R

S

T

U

V

W

X

Y

Z

Search

What

Where
 

Destruktor - "Nuclear Storm" Guitar Tab

Plain Text Version
More Destruktor Tabs

Hits: 1456
Rated: 5.00 out of 5 (5 votes)
Updated: 2007-11-23 01:30:36

 

By:

Wolfsherz

sendpm.gif

email.gif

Important note
This tab is available online because we obtained explicit permission from Destruktor or their label.


#----------------------------------PLEASE NOTE---------------------------------#
#This file is the author's own work and represents their interpretation of the #
#song. You may only use this file for private study, scholarship, or research. #
#Unless specified otherwise, this is NOT an official tab from the band members.#
#------------------------------------------------------------------------------#

  Visit MetalTabs.com for more metal tablature
  
Band:  Destruktor
Album: Nuclear Storm
Song:  Nuclear Storm

Copyright (c)  Hells Headbangers 2006

Transcribed By: Wolfsherz/Jens Cautereels
Email:          cautereels.jens@gmail.com

Tuning: DGCFAd
d ---------------------------------------------------------------
A ---------------------------------------------------------------
F ---------------------------------------------------------------
C -------------------------------(8-11's)------------------------
G -7-777777-8-7-10-7-8-10-7-1111111111111111-10-11-10-8-10-8-5---
D --------------------------------------------------------------- x4

d ---------------------------------------------------------------
A ---------------------------------------------------------------
F ---------------------------------------------------------------
C -2--3-2-3-5-6--5-6-5-3-----------------------------------------
G -2--3-2-3-5-6--5-6-5-3-----------------------------------------
D -0--1-0-1-3-4--3-4-3-1----------------------------------------- x4

d ---------------------------------------------------------------
A ---------------------------------------------------------------
F ---------------------------------------------------------------
C -------------------------------(8-11's)------------------------
G -7-777777-8-7-10-7-8-10-7-1111111111111111-10-11-10-8-10-8-5---
D --------------------------------------------------------------- x4

Guitar 1:
d ---------------------------------------------------------------
A ---------------------------------------------------------------
F ---------------------------------------------------------------
C -2--3-2-3-5-6--5-6-5-3-----------------------------------------
G -2--3-2-3-5-6--5-6-5-3-----------------------------------------
D -0--1-0-1-3-4--3-4-3-1----------------------------------------- x2

Guitar 2:
d ---------------------------------------------------------------
A ---------------------------------------------------------------
F ---------------------------------------------------------------
C -2----------6----6-5-3-----------------------------------------
G -2----------6----6-5-3-----------------------------------------
D -0----------4----4-3-1----------------------------------------- x2

Guitar 1:
d ---------------------------------------------------------------
A ---------------------------------------------------------------
F ---------------------------------------------------------------
C -22-35-22-36-22-35-2-3-65--------------------------------------
G -22-35-22-36-22-35-2-3-65--------------------------------------
D -00-13-00-14-00-13-0-1-43-------------------------------------- x2

After 2nd time guitar 2:
d ---------------------------------------------------------------
A ---------------------------------------------------------------
F ---------------------------------------------------------------
C ----35----36----35---3-65--------------------------------------
G ----35----36----35---3-65--------------------------------------
D ----13----14----13---1-43-------------------------------------- x2

Both guitars:
d ---------------------------------------------------------------
A ---------------------------------------------------------------
F ---------------------------------------------------------------
C -22-35-22-36-22-35-2-3-65--------------------------------------
G -22-35-22-36-22-35-2-3-65--------------------------------------
D -00-13-00-14-00-13-0-1-43-------------------------------------- x12
                                                  TRAPPED, IN, A
d ---------------------------------------------------------------
A ---------------------------------------------------------------
F ---------------------------------------------------------------
C -2222-------2222-------2222---------9-10-9-7-9-----------------
G -2222-------2222-6-5-6-2222-8-7-8---7-8--7-5-7-----------------
D -0000-8-7-8-0000-------0000-------00--------------------------- x4
   NUCLEAR STORM
Guitar 1:
d ---------------------------------------------------------------
A ---------------------------------------------------------------
F ---------------------------------------------------------------
C ---------------------------------------------------------------
G -777-8-7-5-777-8-7-5-777-8-7-5-777-2-3-5-----------------------
D ---------------------------------------------------------------

Both guitars:
d ---------------------------------------------------------------
A ---------------------------------------------------------------
F -9--10-9-7-9--10-9-7-9--10-9-7-9--4-5-7------------------------
C -9--10-9-7-9--10-9-7-9--10-9-7-9--4-5-7------------------------
G -7--8--7-5-7--8--7-5-7--8--7-5-7--2-3-5------------------------
D ---------------------------------------------------------------

d ---------------------------------------------------------------
A ---------------------------------------------------------------
F ---------------------------------------------------------------
C -----------------------------------4-5-7-----------------------
G -777-8-7-5-777-8-7-5-777-8-7-5-777-2-3-5-----------------------
D --------------------------------------------------------------- x4

d ---------------------------------------------------------------
A ---------------------------------------------------------------
F -9--10-9-7-9--10-9-7-9--10-9-7-9--4-5-7------------------------
C -9--10-9-7-9--10-9-7-9--10-9-7-9--4-5-7------------------------
G -7--8--7-5-7--8--7-5-7--8--7-5-7--2-3-5------------------------
D --------------------------------------------------------------- x4
							   2nd time
d ----------------------------------|-------|--------------------
A ----------------------------------|-------|--------------------
F -9--10-9-7-9=-10-9-7-9=-10-9-7-9=-|-4-5-7-|------10------------
C -9--10-9-7-9=-10-9-7-9=-10-9-7-9=-|-4-5-7-|-9-10-10------------
G -7--8--7-5-7=-8--7-5-7=-8--7-5-7=-|-2-3-5-|-9-10-8-------------
D ----------------------------------|-------|-7-8---------------- x2

Guitar 1:
d ---------------------------------------------------------------
A ---------------------------------------------------------------
F ---------------------------------------------------------------
C -22-35-22-36-22-35-2-3-65--------------------------------------
G -22-35-22-36-22-35-2-3-65--------------------------------------
D -00-13-00-14-00-13-0-1-43-------------------------------------- x2

After 2nd time guitar 2:
d ---------------------------------------------------------------
A ---------------------------------------------------------------
F ---------------------------------------------------------------
C ----35----36----35---3-65--------------------------------------
G ----35----36----35---3-65--------------------------------------
D ----13----14----13---1-43-------------------------------------- x2

Both guitars:
d ---------------------------------------------------------------
A ---------------------------------------------------------------
F ---------------------------------------------------------------
C -22-35-22-36-22-35-2-3-65--------------------------------------
G -22-35-22-36-22-35-2-3-65--------------------------------------
D -00-13-00-14-00-13-0-1-43-------------------------------------- x12

d ---------------------------------------------------------------
A ---------------------------------------------------------------
F ---------------------------------------------------------------
C -2222-------2222-------2222---------9-10-9-7-9-----------------
G -2222-------2222-6-5-6-2222-8-7-8---7-8--7-5-7-----------------
D -0000-8-7-8-0000-------0000-------00--------------------------- x4

-drumfill-
d ---------------------------------------------------------------
A ---------------------------------------------------------------
F ---------------------------------------------------------------
C -------------------------------(8-11's)------------------------
G -7-777777-8-7-10-7-8-10-7-1111111111111111-10-11-10-8-10-8-5---
D --------------------------------------------------------------- x4

d ---------------------------------------------------------------
A ---------------------------------------------------------------
F ---------------------------------------------------------------
C -2--3-2-3-5-6--5-6-5-3-----------------------------------------
G -2--3-2-3-5-6--5-6-5-3-----------------------------------------
D -0--1-0-1-3-4--3-4-3-1----------------------------------------- x2

Guitar 1:
d ---------------------------------------------------------------
A ---------------------------------------------------------------
F ---------------------------------------------------------------
C -2--3-2-3-5-6--5-6-5-3-----------------------------------------
G -2--3-2-3-5-6--5-6-5-3-----------------------------------------
D -0--1-0-1-3-4--3-4-3-1----------------------------------------- x2

Guitar 2:
d ---------------------------------------------------------------
A ---------------------------------------------------------------
F ---------------------------------------------------------------
C -2----------6----6-5-3-----------------------------------------
G -2----------6----6-5-3-----------------------------------------
D -0----------4----4-3-1----------------------------------------- x2

Both guitars, all palm-muted:
d ---------------------------------------------------------------
A ---------------------------------------------------------------
F ---------------------------------------------------------------
C ---------------------------------------------------------------
G -22222222-33-22-33-55-66666666-55-66-55-33---------------------
D -00000000-11-00-11-33-44444444-33-44-33-11--------------------- x8

  Visit MetalTabs.com for more metal tablature

bottom separator

Contact Us | Privacy Policy | Disclaimer | Legal Notice
Copyright © 2001-2014 MetalTabs.com. All Rights Reserved.