top separator

Home

Forum

What's New

Submit a Tab

FAQ

Links

Contact Us

Link to Us

MuSpy.com

MetalTabs.com logo

Bands

0-9

A

B

C

D

E

F

G

H

I

J

K

L

M

N

O

P

Q

R

S

T

U

V

W

X

Y

Z

Search

What

Where
 

Destruktor - "Fight Like the Devil" Guitar Tab

Plain Text Version
More Destruktor Tabs

Hits: 1443
Rated: 4.75 out of 5 (4 votes)
Updated: 2007-11-23 01:30:28

 

By:

Wolfsherz

sendpm.gif

email.gif

Important note
This tab is available online because we obtained explicit permission from Destruktor or their label.


#----------------------------------PLEASE NOTE---------------------------------#
#This file is the author's own work and represents their interpretation of the #
#song. You may only use this file for private study, scholarship, or research. #
#Unless specified otherwise, this is NOT an official tab from the band members.#
#------------------------------------------------------------------------------#

  Visit MetalTabs.com for more metal tablature
  
Band:  Destruktor
Album: Nuclear Storm
Song:  Fight Like the Devil

Copyright (c)  Hells Headbangers 2007

Transcribed By: Wolfsherz/Jens Cautereels
Email:          cautereels.jens@gmail.com

Tuning: DGCFAd
d ---------------------------------------------------------------
A ---------------------------------------------------------------
F ----55-77-44----99-1010-77-------------------------------------
C -22-55-77-44-22-99-1010-77-------------------------------------
G -22-33-55-22-22-77-8-8--55-------------------------------------
D -00----------00------------------------------------------------

d ---------------------------------------------------------------
A ---------------------------------------------------------------
F ---------------------------------------------------------------
C -22-5-4-3-2----------------------------------------------------
G -22-5-4-3-2----------------------------------------------------
D -00-3-2-1-0----------------------------------------------------

Guitar 1:
d ---------------------------------------------------------------
A ---------------------------------------------------------------
F ---------------------------------------------------------------
C ----------------23---------------------------------------------
G ----------35-23---35-------------------------------------------
D -00000000------------------------------------------------------ x3

After 2 times guitar 2:
d ---------------------------------------------------------------
A ---------------------------------------------------------------
F ---------------------------------------------------------------
C -222222222222222222222222--------------------------------------
G -222222222222222222222222--------------------------------------
D -000000000000000000000000--------------------------------------

Both guitars:
d ---------------------------------------------------------------
A ---------------------------------------------------------------
F -10-9----------------------------------------------------------
C -10-9-10-9-5---------------------------------------------------
G -8--7-10-9-5---------------------------------------------------
D ------8--7-3---------------------------------------------------
                      3x
d ----------------------|----------------------------------------
A ----------------------|----------------------------------------
F ----------------------|----------10-9--------------------------
C ----------------23----|-22222222-10-9-10-9-5-------------------
G ----------35-23---35--|-22222222-8--7-10-9-5-------------------
D -00000000-------------|-00000000------8--7-3------------------- x2

d ---------------------------------------------------------------
A ---------------------------------------------------------------
F ---5-4---------------------------------------------------------
C -2-5-4-3-------------------------------------------------------
G -2-3-2-3-------------------------------------------------------
D -0-----1-000-1-000-3-1----------------------------------------- x4
                      3x
d ----------------------|----------------------------------------
A ----------------------|----------------------------------------
F ----------------------|----------10-9--------------------------
C ----------------23----|-22222222-10-9-10-9-5-------------------
G ----------35-23---35--|-22222222-8--7-10-9-5-------------------
D -00000000-------------|-00000000------8--7-3------------------- x2

d ---------------------------------------------------------------
A ---------------------------------------------------------------
F ---5-4---------------------------------------------------------
C -2-5-4-3-------------------------------------------------------
G -2-3-2-3-------------------------------------------------------
D -0-----1-000-1-000-3-1----------------------------------------- x4
                           x3
d ---------------------------|-----------------------------------
A ---------------------------|-----------------------------------
F ----55-77-44----99-1010-77-|----55-77-44-----------------------
C -22-55-77-44-22-99-1010-77-|-22-55-77-44-22-5-4-3--------------
G -22-33-55-22-22-77-8-8--55-|-22-33-55-22-22-5-4-3--------------
D -00----------00------------|-00----------00-3-2-1--------------

d ---------------------------------------------------------------
A ---------------------------------------------------------------
F ---------------------------------------------------------------
C -44-55-44-22-55-77-88-77---------------------------------------
G -44-55-44-22-55-77-88-77---------------------------------------
D -22-33-22-00-33-55-66-55--------------------------------------- x4

d ---------------------------------------------------------------
A ---------------------------------------------------------------
F ---------------------------------------------------------------
C -444444-8-4444-5-8---------------------------------------------
G -444444-8-4444-5-8---------------------------------------------
D -222222-6-2222-3-6--------------------------------------------- x8

d ---------------------------------------------------------------
A ---------------------------------------------------------------
F ---------------------------------------------------------------
C -44-5-444-8-7-44-5-7-8-7-5-7-----------------------------------
G -44-5-444-8-7-44-5-7-8-7-5-7-----------------------------------
D -22-3-222-6-5-22-3-5-6-5-3-5----------------------------------- x4

d ---------------------------------------------------------------
A ---------------------------------------------------------------
F ---------------------------------------------------------------
C -444444-8-4444-5-8---------------------------------------------
G -444444-8-4444-5-8---------------------------------------------
D -222222-6-2222-3-6--------------------------------------------- x4

d ---------------------------------------------------------------
A ---------------------------------------------------------------
F ---------------------------------------------------------------
C -44-55-44-22-55-77-88-77---------------------------------------
G -44-55-44-22-55-77-88-77---------------------------------------
D -22-33-22-00-33-55-66-55--------------------------------------- x4

                           x3
d ---------------------------|-----------------------------------
A ---------------------------|-----------------------------------
F ----55-77-44----99-1010-77-|----55-77-44-----------------------
C -22-55-77-44-22-99-1010-77-|-22-55-77-44-22-5-4-3--------------
G -22-33-55-22-22-77-8-8--55-|-22-33-55-22-22-5-4-3--------------
D -00----------00------------|-00----------00-3-2-1--------------

                      3x
d ----------------------|----------------------------------------
A ----------------------|----------------------------------------
F ----------------------|----------10-9--------------------------
C ----------------23----|-22222222-10-9-10-9-5-------------------
G ----------35-23---35--|-22222222-8--7-10-9-5-------------------
D -00000000-------------|-00000000------8--7-3------------------- x2

d ---------------------------------------------------------------
A ---------------------------------------------------------------
F ---------------------------------------------------------------
C -2---------2---------------------------------------------------
G -2---------2---------------------------------------------------
D -0---------0---------------------------------------------------

Modern day thrash classic!

  Visit MetalTabs.com for more metal tablature

bottom separator

Contact Us | Privacy Policy | Disclaimer | Legal Notice
Copyright © 2001-2014 MetalTabs.com. All Rights Reserved.