top separator

Home

Forum

What's New

Submit a Tab

FAQ

Links

Contact Us

Link to Us

MuSpy.com

MetalTabs.com logo

Bands

0-9

A

B

C

D

E

F

G

H

I

J

K

L

M

N

O

P

Q

R

S

T

U

V

W

X

Y

Z

Search

What

Where
 

F.U.B.A.R. - "Buy This" Guitar Tab

Plain Text Version
More F.U.B.A.R. Tabs

Hits: 1454
Updated: 2007-11-23 01:28:44

 

By:

goatman

sendpm.gif

email.gif

Important note
We did our best to reach F.U.B.A.R. and ask for their permission to publish this tab. Unfortunately they did not respond to our requests or we could not find a way to contact them. This tab is available online until F.U.B.A.R. tells us to take it down.


#----------------------------------PLEASE NOTE---------------------------------#
#This file is the author's own work and represents their interpretation of the #
#song. You may only use this file for private study, scholarship, or research. #
#Unless specified otherwise, this is NOT an official tab from the band members.#
#------------------------------------------------------------------------------#

  Visit MetalTabs.com for more metal tablature
  
Band:  (F.U.B.A.R.)
Album: (THE JUSTIFICATION OF CRIMINAL BEHAVIOR)
Song:  (BUY THIS)

Copyright (c)  (BONES BRIGADE RECORDS)

Transcribed By: (GOATMAN)
Email:          (VIRUS010891@AOL.COM)


.  - palm mute    /  - slide up     ()  - sustained note/chord

Tuning: A standard
                                  (first two times - one guitar)   x4
|-------------------------------------------------------------------|
|.-----------------------------------------------------------------.|
|-------------------------------------------------------------------|
|--7--7-7-7-7-7-7----------------3--3-3-3-3-3-3-3/5-5-5-5-5-5-5-----|
|.-5--5-5-5-5-5-5-5--5-5-5-5-5-5-1--1-1-1-1-1-1-1/3-3-3-3-3-3-3----.|
|-----------------3--3-3-3-3-3-3------------------------------------|

                                                     x4
----------------------------------|-------------------|--------------------
----------------------------------|.-----------------.|.-------------------
----------------------------------|-------------------|--------------------
-7-7-7-7-7-7-7-7--7--7-7-7-7-7-7--|--7-7-7-7-------5--|------8888----8888--
-5-5-5-5-5-5-5-5--5--5-5-5-5-5-5--|.-5-5-5-5-5-7-8-3-.|.-5555666655556666--
----------------------------------|----------3-5-6----|--3333----3333------

                  x2                  x4                                x2
-------------------|-------------------|---------------------------------|
------------------.|.-----------------.|.-------------------------------.|
-------------------|-------------------|---------------------------------|
-----8888-------8--|--7-7-7-7-------5--|--3-3-3-5-6-6-6-6-3-3-3-5--8--7--|
-55556666-8-8-7-6-.|.-5-5-5-5-5-7-8-3-.|.-1-1-1-3-4-4-4-4-1-1-1-3--6--5-.|
-3333-----6-6-5----|----------3-5-6----|---------------------------------|

                         x4                                   x2
------|-------------------|------------------------------------|
------|.-----------------.|.----------------------------------.|
------|-------------------|------------------------------------|
------|--7-7-7-7-------5--|------8888----8888----8888-------8--|
-(8)--|.-5-5-5-5-5-7-8-3-.|.-555566665555666655556666-8-8-7-6-.|
-(6)--|----------3-5-6----|--3333----3333----3333-----6-6-5----|

                                      (first time - one guitar) x6
|----------------------------------------------------------------|
|.--------------------------------------------------------------.|
|----------------------------------------------------------------|
|--7--7-7-7-7-7-7----------------3--3-3-3-3-3-3-3/5-5-5-5-5-5-5--|
|.-5--5-5-5-5-5-5-5--5-5-5-5-5-5-1--1-1-1-1-1-1-1/3-3-3-3-3-3-3-.|
|-----------------3--3-3-3-3-3-3---------------------------------|

  Visit MetalTabs.com for more metal tablature

bottom separator

Contact Us | Privacy Policy | Disclaimer | Legal Notice
Copyright © 2001-2014 MetalTabs.com. All Rights Reserved.