top separator

Home

Forum

FAQ

Contact Us

Link to Us

MetalTabs.com logo

Bands

0-9

A

B

C

D

E

F

G

H

I

J

K

L

M

N

O

P

Q

R

S

T

U

V

W

X

Y

Z

Marduk - "The Black..." Guitar Tab

Plain Text Version
More Marduk Tabs

Hits: 299
Updated: 2007-12-23 23:26:39

By:

inrwtl


#----------------------------------PLEASE NOTE---------------------------------#
#This file is the author's own work and represents their interpretation of the #
#song. You may only use this file for private study, scholarship, or research. #
#Unless specified otherwise, this is NOT an official tab from the band members.#
#------------------------------------------------------------------------------#

  Visit MetalTabs.com for more metal tablature
  
Band: Marduk

Album: Dark Endless

Song: The Black

Copyright (c) No Fashion Records  1992

Version 1.1 - 16/11/2007

Transcribed By: inrwtl, FRMC, Fredduk

Email: inrwtl@alice.it


.  - palm mute           /  - slide up to
  - slide down to       ~  - vibrato
h  - hammer on           b  - Bend
p  - pull off            Suffixes for bend
t  - tap                 f  - full bend    h - half bend
ph - pinched harmonic    q  - quarter bend t - tap bend
*  - see comment         ^  - Hold bend    r release bend
x  - Stuccatto           ~  - vibrato bend
,  - slight palm mute    () - ghost note, sustained note
"  - tremolo note        <> - Trill

Tuning C F A# D# G C


Riff 1

|---------------------------------|---------------------------------|
|---------------------------------|---------------------------------|
|-----------------------------3-3-|-----------------------------3~--|
|-----8-8-7-7---------6-6-5-5-----|-----8-8-7-7---------6-6-5-5-----|
|-5-5---------8-8-3-3-------------|-5-5---------8-8-3-3-------------|
|---------------------------------|---------------------------------|


Riff 2

|-------------------------------|-----------------------------------|
|-------------------------------|-----------------------------------|
|-------------------------------|-----------------------------------|
|-------------------------------|-----4-5---------------------------|
|-4-4-4-5-4-4-4-5-4-4-4-5-3-(3)-|-3-2-2-3---------------------------|
|-2-2-2-3-2-2-2-3-2-2-2-3-1-(1)-|-1-0-------------------------------|


Riff 3

|-------------------------------------------------------------------|
|-------------------------------------------------------------------|
|-------------------------------------------------------------------|
|---------9-9-9-9-------------------------8-8-8-8-------------------|
|---------7-7-7-7-----------------3-3-3-3-6-6-6-6-------------------|
|-0-0-0-0---------0-0-0-0-0-0-0-0-1-1-1-1---------0-0-0-0-----------|

|-------------------------------------------------------------------|
|-------------------------------------------------------------------|
|-------------------------------------------------------------------|
|---------9-9-9-9-------------------------8-8-8-8-------------------|
|---------7-7-7-7-----------------3-3-3-3-6-6-6-6---2-1-----2-1-----|
|-0-0-0-0---------0-0-0-0-0-0-0-0-1-1-1-1---------0-----2-0-----2-0-|


Riff 4

|-------------------------------------------------------------------|
|-------------------------------------------------------------------|
|-------------------------------------------------------------------|
|-------------------------------------------------------------------|
|---3p2-------------------------------------------------------------|
|-0-----3-4-3-4-1-0-------------------------------------------------|


Riff 5

|-------------------------------------------------------------------|
|-------------------------------------------------------------------|
|-------------------------------------------------------------------|
|-------------------------------------------------------------------|
|----8~-7~-<45454545>-----------------------------------------------|
|-5~----------------------------------------------------------------|


Riff 6

|-------------------------------------------------------------------|
|-------------------------------------------------------------------|
|-------------------------------------------------------------------|
|----10--9----6--7--6-----------------------------------------------|
|-7--8---7----4--5--4-----------------------------------------------|
|-5-----------------------------------------------------------------|


Riff 7

|-------------------------------------------------------------------|
|-------------------------------------------------------------------|
|-------------------------------------------------------------------|
|----10--9----6-----------------------------------------------------|
|-7--8---7----4-----------------------------------------------------|
|-5-----------------------------------------------------------------|


Riff 8

|-------------------------------------------------------------------|
|-------------------------------------------------------------------|
|-------------------------------------------------------------------|
|----10--9----6--5--------------------------------------------------|
|-7--8---7----4--3--------------------------------------------------|
|-5-----------------------------------------------------------------|


Riff 9

|-------------------------------------------------------------------|
|-------------------------------------------------------------------|
|-------------------------------------------------------------------|
|-------------------------------------------------------------------|
|-4-4-4-5-4-4-4-5-4-4-4-5-2----(2)----------------------------------|
|-2-2-2-3-2-2-2-3-2-2-2-3-0----(0)----------------------------------|


Riff 10 Guitar 1

|-----------------|-------------------------------------------------|
|-----------------|-------------------------------------------------|
|-7---------------|-7---------------7~------------------------------|
|---5-7-8-7-5-7-8-|---5-7-8-7-5-7-8---------------------------------|
|-----------------|-------------------------------------------------|
|-----------------|-------------------------------------------------|


Riff 10 Guitar 2

|-----------------|-------------------------------------------------|
|-----------------|-------------------------------------------------|
|-----------------|-------------------------------------------------|
|-----------------|-------------------------------------------------|
|-5---------------|-5---------------5~------------------------------|
|---3-5-6-5-3-5-6-|---3-5-6-5-3-5-6---------------------------------|


END

  Visit MetalTabs.com for more metal tablature

bottom separator

Contact Us | Privacy Policy | Disclaimer
Copyright © 2001-2014 MetalTabs.com. All Rights Reserved.