top separator

Home

Forum

FAQ

Contact Us

Link to Us

MetalTabs.com logo

Bands

0-9

A

B

C

D

E

F

G

H

I

J

K

L

M

N

O

P

Q

R

S

T

U

V

W

X

Y

Z

Marduk - "Glorification of the Black God" Guitar Tab

Plain Text Version
More Marduk Tabs

Hits: 259
Updated: 2007-11-01 01:00:11

By:

inrwtl


#----------------------------------PLEASE NOTE---------------------------------#
#This file is the author's own work and represents their interpretation of the #
#song. You may only use this file for private study, scholarship, or research. #
#Unless specified otherwise, this is NOT an official tab from the band members.#
#------------------------------------------------------------------------------#

  Visit MetalTabs.com for more metal tablature
  
Band: Marduk

Album: Heaven Shall Burn... When We Are Gathered

Song: Glorification Of The Black God

Copyright (c) Osmose Productions - 1996

Version 1.0 - 22/10/2007

Transcribed By: inrwtl, FRMC, Fredduk

Email: inrwtl@alice.it


.  - palm mute           /  - slide up to
\  - slide down to       ~  - vibrato
h  - hammer on           b  - Bend
p  - pull off            Suffixes for bend
t  - tap                 f  - full bend    h - half bend
ph - pinched harmonic    q  - quarter bend t - tap bend
*  - see comment         ^  - Hold bend    r release bend
x  - Stuccatto           ~  - vibrato bend
,  - slight palm mute    () - ghost note, sustained note
"  - tremolo note        <> - Trill

Tuning E A D G B E


Riff 1

|-------------------------------------------------------------------|
|-------------------------------------------------------------------|
|--------------------------2----2-2-2-2--2-2-2----------------------|
|-7--6----4--6--7--10--11--2----2-2-2-2--2-2-2-5----4----(4)--------|
|-5--4----2--4--5--8---9---0----0-0-0-0--0-0-0-5----4----(4)--------|
|-5--4----2--4--5--8---9-----------------------3----2----(2)--------|


Riff 2

|---------------------------------------------------------|---------|
|---------------------------------------------------------|---------|
|---------------------------------------------------------|---------|
|---------------------------------------------------------|---------|
|-5-5-7-7-7-7-5-5-7-7-7-7-5-5-5-5-4-4-4-4-2-2-2-2-4-4-4-4-|-5-7-----|
|---------------------------------------------------------|---0-----|


Riff 3

|-------------------------------------------------------------------|
|-------------------------------------------------------------------|
|---------------------------2-2-4-4---------------------------------|
|-2/4-4-5-5-4-4-2-2-4-4-5-5---------4-4-4-4-------------------------|
|-------------------------------------------------------------------|
|-------------------------------------------------------------------|


Riff 4

|-------------------------------------------------------------------|
|-------------------------------------------------------------------|
|-------------------------------------------------------------------|
|-------------------------0-0-2-2-----------------------------------|
|-2-2-3-3-2-2-0-0-2-2-3-3---------2-2-2-2---------------------------|
|-------------------------------------------------------------------|


Riff 5

|-------------------------------------------------------------------|
|-------------------------------------------------------------------|
|-------------------------------------------------------------------|
|-9-9-9-9--7/9-9-9--7-7-7-7--6-6-6-6--4-4-4-4--6-6-6-6--4-4-4-4-----|
|-7-7-7-7--5/7-7-7--5-5-5-5--4-4-4-4--2-2-2-2--4-4-4-4--2-2-2-2-----|
|-------------------------------------------------------------------|


Riff 5  Fill 1

|-------------------------------------------------------------------|
|-------------------------------------------------------------------|
|-------------------------------------------------------------------|
|-9-9-9-9--7/9-9-9--7-7-7-7--6-6-6-6--4-4-4-4--6-6-6-6--4-4-4-4-----|
|-7-7-7-7--5/7-7-7--5-5-5-5--4-4-4-4--2-2-2-2--4-4-4-4--2-2-2-2-----|
|-7-7-7-7--5/7-7-7--5-5-5-5--4-4-4-4--2-2-2-2--4-4-4-4--2-2-2-2-----|


Riff 6

|-------------------------------------------------------------------|
|-------------------------------------------------------------------|
|-------------------------------------------------------------------|
|-7-7-7-7--6-6-6-6--4-4--6-6--7-7--10-10-10-10--11-11--2-2-2-2------|
|-5-5-5-5--4-4-4-4--2-2--4-4--5-5--8--8--8--8---9--9---0-0-0-0------|
|-------------------------------------------------------------------|


Riff 7

|-------------------------------------------------------------------|
|-------------------------------------------------------------------|
|---------------------------2-2-4-4---------------------------------|
|-2/4-4-5-5-4-4-2-2-4-4-5-5---------4-4-4-4--11----(11)-------------|
|--------------------------------------------9-----(9-)-------------|
|-------------------------------------------------------------------|


Riff 8

|-----------------------|-------------------------------------------|
|----------3-3----------|----------2-2------------------------------|
|------4-4-----4-4------|------4-4-----4-4--------------------------|
|--4-4-------------4-4--|--4-4-------------4-4----------------------|
|-----------------------|-------------------------------------------|
|-----------------------|-------------------------------------------|


Riff 9 (Overdubbed Guitar) | Fill 1

|--------------------------|----------------------------------------|
|--------------------------|----------------------------------------|
|--------------------------|----------------------------------------|
|-4----6----7----10--------|-14----14-14\11-10----6----7------------|
|-2----4----5----8---------|-12----12-12\9--8-----4----5------------|
|--------------------------|----------------------------------------|


Riff 10 (Overdubbed Guitar)

|-------------------------------------------------------------------|
|-------------------------------------------------------------------|
|-7-7-7-7-7-7-7-7-7-7-7-7-7-7-7-7-6-6-6-6-6-6-6-6-6-6-6-6-6-6-6-6---|
|-------------------------------------------------------------------|
|-------------------------------------------------------------------|
|-------------------------------------------------------------------|


END

  Visit MetalTabs.com for more metal tablature

bottom separator

Contact Us | Privacy Policy | Disclaimer
Copyright © 2001-2014 MetalTabs.com. All Rights Reserved.