#----------------------------------PLEASE NOTE---------------------------------#
#This file is the author's own work and represents their interpretation of the #
#song. You may only use this file for private study, scholarship, or research. #
#Unless specified otherwise, this is NOT an official tab from the band members.#
#------------------------------------------------------------------------------#

  Visit MetalTabs.com for more metal tablature
  
"POWER OF THE NIGHT"
 (From the album "Power of the Night"  Atlantic 1985)

Music & Lyrics: Savatage

Tuning: Tune to "Drop-D Tuning" and then tune all the strings down
one whole step (awesome tuning often used by Criss Oliva on early
Savatage albums): D
                  A
                  F
                  C
                  G
                  C

Classic song by Savatage from the album "Power of the Night".
This is the rhythm guitar part played by Criss Oliva throughout
the song. Enjoy!!!

Intro:
e|-----------|----------------|----------------|----------------|--------------|
B|-----------|----------------|----------------|----------------|--------------|
G|-----------|----------------|----------------|----------------|--------------|
D|-----------|--------------3-|---2-----2-3-5--|--------------3-|---5----------|
A|-----------|--5-----3-------|----------------|--5-----3-----1-|---3----------|
E|---------0-|----0-0---0-0---|-0---0-0------0-|----0-0---0-0---|------------0-|

                                                     ----------------
                                                    |1.
e|----------------|----------------|----------------|----------------|
B|----------------|----------------|----------------|----------------|
G|----------------|----------------|----------------|----------------|
D|--------------3-|---2-----2-3-5--|--------------3-|---5------------|
A|--5-----3-------|----------------|--5-----3-----1-|---3------------|
E|----0-0---0-0---|-0---0-0------0-|----0-0---0-0---|--------------0-| x2

  ----------------
 |2.
e|----------------|
B|----------------|
G|----------------|
D|---5------------|
A|---3------------|
E|----------------|

Verse:
e|-5---5-----------5-|---5---8----8----5-|--h5-----5-------|---------------|
B|-6---6-----------6-|---6---9----9----5-|--h6-----6-------|---------------|
G|-7---7-----------7-|---7---10---10---5-|--h7-----7-------|---------------|
D|-7---7-----------7-|---7---10---10---5-|--h7-----7-----3-|---5-----------|
A|-------------------|-------------------|---------------1-|---3-----------|
E|-------0-0-0-0-0---|-----0---------0---|-----0-0---0-0---|---------------| x4

Pre-Chorus:
e|--------------------|------------------|-----------------|------------------|
B|--------------------|------------------|-----------------|------------------|
G|--------------------|---5-----5--------|-----5-----5-----|------------------|
D|-3------------------|---5-----5--------|-----5-----5-----|---5-5-5-5-p3-----|
A|-1----------------0-|-----0-0----------|-----------------|--------------5---|
E|--------------------|----------------3-|---3---3-3-----5-|----------------0-|

e|----------------|----------------|----------------|----------------|
B|----------------|----------------|----------------|----------------|
G|----------------|----------------|----------------|----------------|
D|--------------3-|---2-----2-3-5--|--------------3-|---5------------|
A|--5-----3-------|----------------|--5-----3-----1-|---3------------|
E|----0-0---0-0---|-0---0-0------0-|----0-0---0-0---|----------------|

Chorus:            --------------------------------------------------
                  |1.
e|----------------|--------------5-|--h5-----------5-|--p5-----5-----|
B|-8--------------|-6------------5-|--h6-----------6-|--p5-----5-----|
G|-7--------------|-5------------5-|--h7-----------7-|--p5-----5-----|
D|-5--------------|-3------------5-|--h7-----------7-|--p5-----5-----|
A|-5--------------|-3--------------|-----------------|---------------|
E|----------------|----------------|-----0-0-0-0-0---|-----0-0---0-0-| x3
         "Power of    the Night..."

  ----------------------------------
 |2.
e|----------------|-----------------|-------------------|
B|----------------|-----------------|-------------------|
G|----------------|-----------------|-------------------|
D|-3-----5--------|-----------------|-----------3-3-2---|
A|-1-----3--------|-5-3---5---3---5-|---3---3-----------|
E|----------------|-----------------|-----------------0-|

                                                     ----------------
                                                    |1.
e|----------------|----------------|----------------|----------------|
B|----------------|----------------|----------------|----------------|
G|----------------|----------------|----------------|----------------|
D|--------------3-|---2-----2-3-5--|--------------3-|---5------------|
A|--5-----3-------|----------------|--5-----3-----1-|---3------------|
E|----0-0---0-0---|-0---0-0------0-|----0-0---0-0---|--------------0-| x2

  ----------------
 |2.
e|----------------|
B|----------------|
G|----------------|
D|---5------------|
A|---3------------|
E|----------------|

Verse:

Pre-Chorus:

Chorus (modified 1):
                   --------------------------------------------------
                  |1.
e|----------------|--------------5-|--h5-----------5-|--p5-----5-----|
B|-8--------------|-6------------5-|--h6-----------6-|--p5-----5-----|
G|-7--------------|-5------------5-|--h7-----------7-|--p5-----5-----|
D|-5--------------|-3------------5-|--h7-----------7-|--p5-----5-----|
A|-5--------------|-3--------------|-----------------|---------------|
E|----------------|----------------|-----0-0-0-0-0---|-----0-0---0-0-| x3
         "Power of    the Night..."

  ---------------------------------
 |2.
e|----------------|-5------------5-|---------------5-|---5-----------|
B|----------------|-6------------5-|---------------6-|---5-----------|
G|----------------|-7------------5-|---------------7-|---5-----------|
D|-3-----5--------|-7------------5-|---------------7-|---5-----------|
A|-1-----3--------|----------------|-----------------|---------------|
E|----------------|----------------|-----------------|---------------|

e|----------------|
B|----------------|
G|----------------|
D|----------------|
A|-5-3---5---3----|
E|----------------|

Verse (guitar solo):

Pre-Chorus (guitar solo):

Verse:

Chorus (modified 2):
                   --------------------------------------------------
                  |1.
e|----------------|--------------5-|--h5-----------5-|--p5-----5-----|
B|-8--------------|-6------------5-|--h6-----------6-|--p5-----5-----|
G|-7--------------|-5------------5-|--h7-----------7-|--p5-----5-----|
D|-5--------------|-3------------5-|--h7-----------7-|--p5-----5-----|
A|-5--------------|-3--------------|-----------------|---------------|
E|----------------|----------------|-----0-0-0-0-0---|-----0-0---0-0-| x3
         "Power of    the Night..."

  ----------------------------------
 |2.
e|----------------|-----------------|-------------------|
B|----------------|-----------------|-------------------|
G|----------------|-----------------|-------------------|
D|-3-----5--------|-----------------|-----------3-3-2---|
A|-1-----3--------|-5-3---5---3---5-|---3---3-----------|
E|----------------|-----------------|-------------------|

                                                            --------------
Outro:                                                     |1.
e|-5---5-----------5-|---5---8----8----5-|--h5-----5-------|--------------|
B|-6---6-----------6-|---6---9----9----5-|--h6-----6-------|--------------|
G|-7---7-----------7-|---7---10---10---5-|--h7-----7-------|--------------|
D|-7---7-----------7-|---7---10---10---5-|--h7-----7-----3-|---5----------|
A|-------------------|-------------------|---------------1-|---3----------|
E|-------0-0-0-0-0---|-----0---------0---|-----0-0---0-0---|--------------| x2

  ----------------
 |2.
e|----------------|
B|----------------|
G|----------------|
D|---5------------|
A|---3------------|
E|--------------0-|

                                                     ----------------
                                                    |1.
e|----------------|----------------|----------------|----------------|
B|----------------|----------------|----------------|----------------|
G|----------------|----------------|----------------|----------------|
D|--------------3-|---2-----2-3-5--|--------------3-|---5------------|
A|--5-----3-------|----------------|--5-----3-----1-|---3------------|
E|----0-0---0-0---|-0---0-0------0-|----0-0---0-0---|--------------0-| x2

Finale:
  ----------------
 |2.
e|----------------|-----------------|
B|----------------|-----------------|
G|----------------|-----------------|
D|---5------------|-------------3---|
A|---3----------5-|---3-5-6-5-3---5-|
E|----------------|-----------------| End

Tablature Legend: h = hammer-on
                  p = pull-off
                  s = slide

Tablature by NightStalker297

  Visit MetalTabs.com for more metal tablature