top separator

Home

Forum

What's New

Submit a Tab

FAQ

Links

Contact Us

Link to Us

MetalTabs.com logo

Bands

0-9

A

B

C

D

E

F

G

H

I

J

K

L

M

N

O

P

Q

R

S

T

U

V

W

X

Y

Z

Search

What

Where
 

Fornicator - "Sexy Pose" Guitar Tab

Plain Text Version
More Fornicator Tabs

Hits: 1440
Updated: 2007-10-10 01:52:20

 

By:

goatman

sendpm.gif

email.gif

Important note
We did our best to reach Fornicator and ask for their permission to publish this tab. Unfortunately they did not respond to our requests or we could not find a way to contact them. This tab is available online until Fornicator tells us to take it down.


#----------------------------------PLEASE NOTE---------------------------------#
#This file is the author's own work and represents their interpretation of the #
#song. You may only use this file for private study, scholarship, or research. #
#Unless specified otherwise, this is NOT an official tab from the band members.#
#------------------------------------------------------------------------------#

  Visit MetalTabs.com for more metal tablature
  
Band:  (FORNICATOR)
Album: (FORNICATOR)
Song:  (SEXY POSE)

Copyright (c)  (MORIBUND RECORDS) (2002)

Transcribed By: (GOATMAN)
Email:          (VIRUS010891@AOL.COM)


.  - palm mute   .(above tab) - staccato


Tuning: B Standard

-------------------------------------------------
-------------------------------------------------
-------------------------------------------------
-------------------------------------------------
-- BASS--5-3--7--2--MORE BASS-------6--------4---
---------3-2--5--0------------0000--4--0000--2---
                              ....     ....
                                                                     x2
|---------------------------------------------------------------------|
|.-------------------------------------------------------------------.|
|---------------------------------------------------------------------|
|------------.--.-----------------------------.--.--------------------|
|.-----------3--3-----------5-4--7------------3--3--------6--------4-.|
|--00000000--1--1--00000000-3-2--5--00000000--1--1--0000--4--0000--2--|
   ........        ........         ........        ....     ....
                                       x5
|---------------------------------------|----------------------------------
|.-------------------------------------.|.---------------------------------
|---------------------------------------|----------------------------------
|---------------------------------------|------------.--.------------------
|.-2----3----5----3----5----3-----5--3-.|.-----------3--3-----------5-4--7-
|--0-00-1-00-3-00-1-00-3-00-1-00--3--1--|--00000000--1--1--00000000-3-2--5-
     ..   ..   ..   ..   ..   ..           ........        ........
                                  x2
-----------------------------------|----
----------------------------------.|----
-----------------------------------|----
-----------.--.--------------------|----
-----------3--3--------6--------4-.|-2--
-00000000--1--1--0000--4--0000--2--|-0--
 ........        ....     ....

  Visit MetalTabs.com for more metal tablature

bottom separator

Contact Us | Privacy Policy | Disclaimer | Legal Notice
Copyright © 2001-2014 MetalTabs.com. All Rights Reserved.