top separator

Home

Forum

What's New

Submit a Tab

FAQ

Links

Contact Us

Link to Us

MuSpy.com

MetalTabs.com logo

Bands

0-9

A

B

C

D

E

F

G

H

I

J

K

L

M

N

O

P

Q

R

S

T

U

V

W

X

Y

Z

Search

What

Where
 

Napalm Death - "Impressions" Guitar Tab

Plain Text Version
More Napalm Death Tabs

Hits: 1600
Updated: 2007-10-10 01:50:39

 

By:

SuNioj0369

sendpm.gif

email.gif

Important note
This tab is available online because we obtained explicit permission from Napalm Death or their label.


#----------------------------------PLEASE NOTE---------------------------------#
#This file is the author's own work and represents their interpretation of the #
#song. You may only use this file for private study, scholarship, or research. #
#Unless specified otherwise, this is NOT an official tab from the band members.#
#------------------------------------------------------------------------------#

  Visit MetalTabs.com for more metal tablature
  
Napalm Death - Impressions
From the album From Enslavement to Obliteration (Earach Records [1988])

Transcribed by: John Nixon (jnixon0369@yahoo.com)

Tuning: Down 1 1/2 Steps (Db, Gb, Cb, Fb, Ab, db)

Key:
()~ = let note ring

Notes:
Typical early ND here.  Nothing else really to say.
=-=-=-=-=-=-=-=-=-=-=-=-=-=-=-=-=-=-=-=-=-=-=-=-=-=-=-=-=-=-=-=-=-=-=-=-=-=-=-=-

Intro
|----------|------|
|----------|------|
|----------|------|
|-3------2-|-(2)~-|
|-1--3-4-0-|-(0)~-|
|----1-2---|------|

Riff A x 4
|------------------|
|------------------|
|------------------|
|------------------|
|-8888334477777777-|
|-6666112255555555-|

Riff B x 4
|----------------|
|----------------|
|----------------|
|-66888888-------|
|-4466666688-7-7-|
|---------66-5-5-|

Riff A x 4
Riff B x 4

Fill x 1 (* = 10th fret)
|------------------|----------------|
|------------------|----------------|
|------------------|----------------|
|-****************-|-********-*--*--|
|-8888888888888888-|-88888888-8--8--|
|------------------|----------------|

Riff C x 1 (* = 10th fret)
|--------------(x3)|--------------|
|------------------|--------------|
|------------------|--------------|
|-66888888---------|-6688-8-------|
|-44666666****7777-|-4466-6-10--7-|
|---------88885555-|---------8--5-|

END.

  Visit MetalTabs.com for more metal tablature

bottom separator

Contact Us | Privacy Policy | Disclaimer | Legal Notice
Copyright © 2001-2014 MetalTabs.com. All Rights Reserved.