top separator

Home

Forum

What's New

Submit a Tab

FAQ

Links

Contact Us

Link to Us

MuSpy.com

MetalTabs.com logo

Bands

0-9

A

B

C

D

E

F

G

H

I

J

K

L

M

N

O

P

Q

R

S

T

U

V

W

X

Y

Z

Search

What

Where
 

Napalm Death - "Private Death" Guitar Tab

Plain Text Version
More Napalm Death Tabs

Hits: 1662
Updated: 2007-10-10 01:50:30

 

By:

SuNioj0369

sendpm.gif

email.gif

Important note
This tab is available online because we obtained explicit permission from Napalm Death or their label.


#----------------------------------PLEASE NOTE---------------------------------#
#This file is the author's own work and represents their interpretation of the #
#song. You may only use this file for private study, scholarship, or research. #
#Unless specified otherwise, this is NOT an official tab from the band members.#
#------------------------------------------------------------------------------#

  Visit MetalTabs.com for more metal tablature
  
Napalm Death - Private Death
From the album From Enslavement to Obliteration (Earach Records [1988])

Transcribed by: John Nixon (jnixon0369@yahoo.com)

Tuning: Down 1 1/2 Steps (Db, Gb, Cb, Fb, Ab, db)

Key:
/ = slide

Notes:
Typical early ND here.  Nothing else really to say.
=-=-=-=-=-=-=-=-=-=-=-=-=-=-=-=-=-=-=-=-=-=-=-=-=-=-=-=-=-=-=-=-=-=-=-=-=-=-=-=-

Riff A x 4 (* = 10th fret)
|-------------------|
|-------------------|
|-------------------|
|-8-******-66666666-|
|-6/888888-44444444-|
|-------------------|

Riff B x 4
|-------------------|
|-------------------|
|-------------------|
|-7/999999----------|
|-5/777777-88888888-|
|----------66666666-|

Riff A x 4
Riff B x 4

Riff C x 8
|-----------------|
|-----------------|
|-----------------|
|---------------9-|
|-10/11-11-10-9-7-|
|--8/-9--9-8--7---|

Riff B x 3

Riff B.1 x 1
|-------------------|
|-------------------|
|-------------------|
|-7/999999----------|
|-5/777777-8886-8-5-|
|----------6666-6-3-|

END.

  Visit MetalTabs.com for more metal tablature

bottom separator

Contact Us | Privacy Policy | Disclaimer | Legal Notice
Copyright © 2001-2014 MetalTabs.com. All Rights Reserved.