top separator

Home

Forum

What's New

Submit a Tab

FAQ

Links

Contact Us

Link to Us

MetalTabs.com logo

Bands

0-9

A

B

C

D

E

F

G

H

I

J

K

L

M

N

O

P

Q

R

S

T

U

V

W

X

Y

Z

Search

What

Where
 

Napalm Death - "It's A M.A.N.S World!" Guitar Tab

Plain Text Version
More Napalm Death Tabs

Hits: 2564
Rated: 5.00 out of 5 (1 vote)
Updated: 2007-10-10 01:49:59

 

By:

SuNioj0369

sendpm.gif

email.gif

Important note
This tab is available online because we obtained explicit permission from Napalm Death or their label.


#----------------------------------PLEASE NOTE---------------------------------#
#This file is the author's own work and represents their interpretation of the #
#song. You may only use this file for private study, scholarship, or research. #
#Unless specified otherwise, this is NOT an official tab from the band members.#
#------------------------------------------------------------------------------#

  Visit MetalTabs.com for more metal tablature
  
Napalm Death - It's a M.A.N.S World!
From the album From Enslavement to Obliteration (Earach Records [1988])

Transcribed by: John Nixon (jnixon0369@yahoo.com)

Tuning: Down 1 1/2 Steps (Db, Gb, Cb, Fb, Ab, db)

Key:
/ = slide

Notes:
Typical early ND here.  Since the majority of this song is hard to decipher and
sloppy as balls, I've only transcribed the chords and when to just play them and
when to just trem pick the shit out of them.
=-=-=-=-=-=-=-=-=-=-=-=-=-=-=-=-=-=-=-=-=-=-=-=-=-=-=-=-=-=-=-=-=-=-=-=-=-=-=-=-

Riff A x 4
|------------|
|------------|
|------------|
|------------|
|-2--3--5--6-|
|-0--1--3--4-|

Riff A x 4 (Sloppy, trem. picked chords in typical old-school ND fashion)

Riff B x 2 (Again, in sloppy, trem. picked fashion)
|------------|------------|
|------------|------------|
|------------|------------|
|------------|------------|
|-7--6--7--6-|-7--6--3--2-|
|-5--4--5--4-|-5--4--1--0-|

Riff A x 4 (Sloppy, trem. picked version)
Riff B x 2

Riff C x 1.5
|----------x4|------------------x2|
|------------|--------------------|
|------------|--------------------|
|------------|--------------------|
|-4/8--6/4-4-|-2-5--2-4--2-5--2-6-|
|-2/6--4/2-2-|-0-3--0-2--0-3--0-4-|

Riff A x 4 (As played before)
Riff B x 3

Riff B.1 x 1 (Just play the chords, no trem. picking)
|------------|---------|
|------------|---------|
|------------|---------|
|------------|---------|
|-7--6--7--6-|-7--6--3-|
|-5--4--5--4-|-5--4--1-|

END

  Visit MetalTabs.com for more metal tablature

bottom separator

Contact Us | Privacy Policy | Disclaimer | Legal Notice
Copyright © 2001-2014 MetalTabs.com. All Rights Reserved.