top separator

Home

Forum

What's New

Submit a Tab

FAQ

Links

Contact Us

Link to Us

MuSpy.com

MetalTabs.com logo

Bands

0-9

A

B

C

D

E

F

G

H

I

J

K

L

M

N

O

P

Q

R

S

T

U

V

W

X

Y

Z

Search

What

Where
 

Dirty Rotten Imbeciles - "The Explorer" Guitar Tab

Plain Text Version
More Dirty Rotten Imbeciles Tabs

Hits: 1285
Updated: 2007-09-21 03:56:33

 

By:

Arsenal_420

sendpm.gif

email.gif

Important note
This tab is available online because we obtained explicit permission from Dirty Rotten Imbeciles or their label.


#----------------------------------PLEASE NOTE---------------------------------#
#This file is the author's own work and represents their interpretation of the #
#song. You may only use this file for private study, scholarship, or research. #
#Unless specified otherwise, this is NOT an official tab from the band members.#
#------------------------------------------------------------------------------#

  Visit MetalTabs.com for more metal tablature
  
Band:  D.R.I. - Dirty Rotten Imbeciles
Album: Dealing With It
Song:  The Explorer

Copyright (c)  1985
Version 1.0 - 9/12/07

Transcribed By: gary
Email:          hyperslob@yahoo.com


.  - palm mute           /  - slide up to
\  - slide down to       ~  - vibrato
h  - hammer on           b  - Bend
p  - pull off            Suffixes for bend
t  - tap                 f  - full bend    h - half bend
ph - pinched harmonic    q  - quarter bend t - tap bend
*  - see comment         ^  - Hold bend    r release bend
x  - Stuccatto           ~  - vibrato bend
,  - slight palm mute    () - ghost note, sustained note
"  - tremolo note        <> - Trill

Tuning E A D G B E


 (0:04)
|-------------------------------------------------------------------|
|-------------------------------------------------------------------|
|-------------------------------------------------------------------|
|-4--4-4-4-4-4-4----------------7--7-7-7-7-7-7-3-3-3-5--5-5-5-------|
|-2--2-2-2-2-2-2-5-5-5-4--4-4-5-5--5-5-5-5-5-5-1-1-1-3--3-3-3-------|
|----------------3-3-3-2--2-2-3-------------------------------------|

 Last Time (0:17)
|-------------------------------------------------------------------|
|-------------------------------------------------------------------|
|-------------------------------------------------------------------|
|-4--4-4-4-4-4-4----------------7----3--5---------------------------|
|-2--2-2-2-2-2-2-5-5-5-4--4-4-5-5----1--3---------------------------|
|----------------3-3-3-2--2-2-3-------------------------------------|

 (0:22)
|-------------------------------------------------------------------|
|-------------------------------------------------------------------|
|-----------------5-5-5-5-7-7-7-7-------------5-5-------------------|
|-7-7-3-3-5-5-7-7-3-3-3-3-5-5-5-5-7-7-3-3-5-5-3-3-5-5-5-5-7-7-7-7---|
|-5-5-1-1-3-3-5-5-----------------5-5-1-1-3-3-----3-3-3-3-5-5-5-5---|
|-------------------------------------------------------------------|

 (0:28)
|-------------------------------------------------------------------|
|-------------------------------------------------------------------|
|-----------------3-3-3-3-3-3-3-3-4---------------------------------|
|-5-5-5-5-5-5-5-5-1-1-1-1-1-1-1-1-2---------------------------------|
|-3-3-3-3-3-3-3-3---------------------------------------------------|
|-------------------------------------------------------------------|

 (0:31)
|-------------------------------------------------------------------|
|-------------------------------------------------------------------|
|-------------------------------------------------------------------|
|-------------------------------------------------------------------|
|------BEND BEHIND THE NUT TO AN F# NOTE----------------------------|
|-0-----------------------------------------(0)---------------------|

 (0:37) Im searchiiiing....
|-------------------------------------------------------------------|
|-------------------------------------------------------------------|
|-------------------------------------------------------------------|
|-10-------9----------10----12--10--9---------10--------9\\\\\\\----|
|-8--------7----------8-----10--8---7---------8---------7\\\\\\\----|
|-------------------------------------------------------------------|

 (0:49)
|-------------------------------------------------------------------|
|-------------------------------------------------------------------|
|-------------------------------------------------------------------|
|--------6-5------7-6------------7-3-5------------------------------|
|-3-3----4-3-4----5-4-5----6-----5-1-3------------------------------|
|-1-1--------2222-----3333-44444------------------------------------|
              ...      ...  ....
 (0:55)
|-------------------------------------------------------------------|
|-------------------------------------------------------------------|
|-------------------------------------------------------------------|
|----------11111111----------11111111----------1111-2---------------|
|-33333333----------33333333----------33333333----------------------|
|-------------------------------------------------------------------|
  ........ ........ ........ ........ ........ ....

 (1:01)
|-------------------------------------------------------------------|
|-------------------------------------------------------------------|
|-----------------5-5-5-5-7-7-7-7-------------5-5-------------------|
|-7-7-3-3-5-5-7-7-3-3-3-3-5-5-5-5-7-7-3-3-5-5-3-3-5-5-5-5-7-7-7-7---|
|-5-5-1-1-3-3-5-5-----------------5-5-1-1-3-3-----3-3-3-3-5-5-5-5---|
|-------------------------------------------------------------------|


Then Repeat everying from (0:31) - (0:49)


END

  Visit MetalTabs.com for more metal tablature

bottom separator

Contact Us | Privacy Policy | Disclaimer | Legal Notice
Copyright © 2001-2014 MetalTabs.com. All Rights Reserved.