top separator

Home

Forum

What's New

Submit a Tab

FAQ

Links

Contact Us

Link to Us

MetalTabs.com logo

Bands

0-9

A

B

C

D

E

F

G

H

I

J

K

L

M

N

O

P

Q

R

S

T

U

V

W

X

Y

Z

Search

What

Where
 

Possessed - "The Eyes Of Horror" Guitar Tab

Plain Text Version
More Possessed Tabs

Hits: 5353
Rated: 4.00 out of 5 (1 vote)
Updated: 2007-09-21 03:56:22

 

By:

Arsenal_420

sendpm.gif

email.gif

Important note
This tab is available online because we obtained explicit permission from Possessed or their label.


#----------------------------------PLEASE NOTE---------------------------------#
#This file is the author's own work and represents their interpretation of the #
#song. You may only use this file for private study, scholarship, or research. #
#Unless specified otherwise, this is NOT an official tab from the band members.#
#------------------------------------------------------------------------------#

  Visit MetalTabs.com for more metal tablature
  
Band:  Possessed
Album: The Eyes of Horror
Song:  The Eyes of Horror

Copyright (c)  1987
Version 1.0 - 9/12/07

Transcribed By: gary
Email:          hyperslob@yahoo.com


.  - palm mute           /  - slide up to
\  - slide down to       ~  - vibrato
h  - hammer on           b  - Bend
p  - pull off            Suffixes for bend
t  - tap                 f  - full bend    h - half bend
ph - pinched harmonic    q  - quarter bend t - tap bend
*  - see comment         ^  - Hold bend    r release bend
x  - Stuccatto           ~  - vibrato bend
,  - slight palm mute    () - ghost note, sustained note
"  - tremolo note        <> - Trill

Tuning E A D G B E

 Riff A
|-------------------------------------------------------------------|
|-------------------------------------------------------------------|
|-------------------------4-3-2/4-----------------------------------|
|-4-------------------5-4-----2/4-----------------------------------|
|-2--222222222222-3-2-----------------------------------------------|
|-------------------------------------------------------------------|

 (0:11)
|-------------------------------------------------------------------|
|-------------------------------------------------------------------|
|-------------------------------------------------------------------|
|-7-----------------------------------------------------------------|
|-5-----------------------------------------------------------------|
|-------------------------------------------------------------------|

 Riff B
|-------------------------------------------------------------------|
|-------------------------------------------------------------------|
|-------------------------------------------------------------------|
|-------------------------------------------------------------------|
|---------------555555555555--------------444444444444--------------|
|-7777777777777-666666666666-222222222222-555555555555--------------|

 Riff C
|-------------------------------------------------------------------|
|-------------------------------------------------------------------|
|-------------------------------------------------------------------|
|-4----4-------PH----4-----4----------------------------------------|
|-2----2-3------2----2-----2-3----2-3-5-3-2-------------------------|
|--------1-------------------1--------------------------------------|

 Riff D
 Gtr. 1
|-------------------------------------------------------------------|
|-------------------------------------------------------------------|
|-------------5-4-2-------------------------------------------------|
|-4-----------------5-4-2-4-5-4-------------------------------------|
|-2-222222222-------------------------------------------------------|
|-------------------------------------------------------------------|

 Gtr. 2
|---------------8-7-5-----------------------------------------------|
|-0000000000000-------8-7-5-7-8-7-----------------------------------|
|-------------------------------------------------------------------|
|-------------------------------------------------------------------|
|-------------------------------------------------------------------|
|-------------------------------------------------------------------|

 thats basically the riffs

END

  Visit MetalTabs.com for more metal tablature

bottom separator

Contact Us | Privacy Policy | Disclaimer | Legal Notice
Copyright © 2001-2014 MetalTabs.com. All Rights Reserved.