top separator

Home

Forum

What's New

Submit a Tab

FAQ

Links

Contact Us

Link to Us

MetalTabs.com logo

Bands

0-9

A

B

C

D

E

F

G

H

I

J

K

L

M

N

O

P

Q

R

S

T

U

V

W

X

Y

Z

Search

What

Where
 

Possessed - "Beyond the Gates" Guitar Tab

Plain Text Version
More Possessed Tabs

Hits: 3035
Updated: 2007-09-21 03:56:11

 

By:

Arsenal_420

sendpm.gif

email.gif

Important note
This tab is available online because we obtained explicit permission from Possessed or their label.


#----------------------------------PLEASE NOTE---------------------------------#
#This file is the author's own work and represents their interpretation of the #
#song. You may only use this file for private study, scholarship, or research. #
#Unless specified otherwise, this is NOT an official tab from the band members.#
#------------------------------------------------------------------------------#

  Visit MetalTabs.com for more metal tablature
  
Band:  Possessed
Album: Beyond The Gates
Song:  Beyond The Gates

Copyright (c)  1986
Version 1.0 -  9/11/07

Transcribed By: Gary
Email:          hyperslob@yahoo.com


.  - palm mute           /  - slide up to
\  - slide down to       ~  - vibrato
h  - hammer on           b  - Bend
p  - pull off            Suffixes for bend
t  - tap                 f  - full bend    h - half bend
ph - pinched harmonic    q  - quarter bend t - tap bend
*  - see comment         ^  - Hold bend    r release bend
x  - Stuccatto           ~  - vibrato bend
,  - slight palm mute    () - ghost note, sustained note
"  - tremolo note        tr - Trill

Tuning E A D G B E



 Riff A
|-----------------------------|-------------------------------------|
|-----------------------------|-------------------------------------|
|-----------------------------|-------------------------------------|
|---3-2h3p2-------------------|-------------------------------------|
|-----------3---3-----2-------|-3-3-3-3-2-2-2-2---------------------|
|-2-----------2---1-1---------|-----------------1-1-1-1--4----------|
  .           .   . .           . . . . . . . . . . . .


 Riff B
|--------------------------|
|--------------------------|
|--------------------------|
|-------2tr3---------2-0---|
|-4-4-4------3-3-3-3-----2-|
|-2-2-2--------1-1-1-------|


 Riff C
|-------------------------------------------------------------------|
|-------------------------------------------------------------------|
|-------------------------------------------------------------------|
|---------------------4-2-1-------------------------2tr3------------|
|-4-4-4-4-5-5-5-5-3-3-------3-2-3-3-3-3-6-6-6-6-4-4------3----------|
|-2-2-2-2-3-3-3-3-1-1-----------1-1-1-1-4-4-4-4-2-2-----------------|
    . . . . . . . . .             . . . . . . . . .


 Riff D (under solo)
|-------------------------------------------------------------------|
|-------------------------------------------------------------------|
|-------------------------------------------------------------------|
|-------------------------------------------------------------------|
|-------------------------------------------------------------------|
|-22222222-33333333-66666666-5555---5h6h8p5-------------------------|

|-------------------------------------------------------------------|
|-------------------------------------------------------------------|
|-------------------------------------------------------------------|
|-------------------------------------------------------------------|
|---------------------------------0h1h3/5---------------------------|
|-22222222-33333333-11111111-2222-----------------------------------|


 Then A Big Pick Slide


 Riff E (keyboard part)
|-------------------------------------------------------------------|
|-------------------------------------------------------------------|
|-------------------------------------------------------------------|
|-------------------------------------------------------------------|
|-------------------4-5-7-5-4---------------------------------------|
|-2-3-5-2-3-5-2-3-5-------------------------------------------------|
  . . . . . . . . .
  " " " " " " " " " " " " " "

 The Two Keyboard Chords Sound Like This:
|-------------------------------------------------------------------|
|-------------------------------------------------------------------|
|-----6--------7----------------------------------------------------|
|-----5--------6----------------------------------------------------|
|-----4--------5----------------------------------------------------|
|-------------------------------------------------------------------|


 Interlude at (2:24)
|-------------------------------------------------------------------|
|-------------------------------------------------------------------|
|-------------------------------------------------------------------|
|-------------------------------------------------------------------|
|-3----5----4-------------------------------------------------------|
|-1----3----2-------------------------------------------------------|

Back to Riff A


END

  Visit MetalTabs.com for more metal tablature

bottom separator

Contact Us | Privacy Policy | Disclaimer | Legal Notice
Copyright © 2001-2014 MetalTabs.com. All Rights Reserved.