top separator

Home

Forum

What's New

Submit a Tab

FAQ

Links

Contact Us

Link to Us

MuSpy.com

MetalTabs.com logo

Bands

0-9

A

B

C

D

E

F

G

H

I

J

K

L

M

N

O

P

Q

R

S

T

U

V

W

X

Y

Z

Search

What

Where
 

Mutilator - "Raise The Strange (instr.)" Guitar Tab

Plain Text Version
More Mutilator Tabs

Hits: 2095
Updated: 2007-09-21 03:55:27

 

By:

Arsenal_420

sendpm.gif

email.gif

Important note
We did our best to reach Mutilator and ask for their permission to publish this tab. Unfortunately they did not respond to our requests or we could not find a way to contact them. This tab is available online until Mutilator tells us to take it down.


#----------------------------------PLEASE NOTE---------------------------------#
#This file is the author's own work and represents their interpretation of the #
#song. You may only use this file for private study, scholarship, or research. #
#Unless specified otherwise, this is NOT an official tab from the band members.#
#------------------------------------------------------------------------------#

  Visit MetalTabs.com for more metal tablature
  
Band:  Mutilator
Album: Into The Strange
Song:  Raise The Strange

Transcribed By: Gary
Email:          hyperslob@yahoo.com


.  - palm mute           /  - slide up to
\  - slide down to       ~  - vibrato
h  - hammer on           b  - Bend
p  - pull off            Suffixes for bend
t  - tap                 f  - full bend    h - half bend
ph - pinched harmonic    q  - quarter bend t - tap bend
*  - see comment         ^  - Hold bend    r release bend
x  - Stuccatto           ~  - vibrato bend
,  - slight palm mute    () - ghost note, sustained note
"  - tremolo note        <> - Trill

Tuning E A D G B E

 badass tune



 Intro (play this 2 times)
|-------------------------------------------------------------------|
|-------------------------------------------------------------------|
|---0---0-------------------0---------------------------------------|
|-----4------------9----------4---------------9\7-------------------|
|-7--------------7-------7------5-----------7--\5-------------------|
|--------------0--------------------------0-------------------------|

 Main Riff
|-------------------------------------------------------------------|
|-------------------------------------------------------------------|
|-----------0---0-----------0---0-----------0---0-----------0-------|
|-----9\--7---4-------9\--5---4-------9\--7---4-----2/4---4---5/7---|
|---7---5-----------7---3-----------7---5---------0-----3-----------|
|-0---------------0---------------0---------------------------------|



 Solo  (0:59)
|-------------------------------------------------------------------|
|--------------3----------------------------------------------------|
|-2h4-(4)\--/4---2---0-4--------------------------------------------|
|------------------------2---2-4-5-4-2------------------------------|
|--------------------------------------3---2------------------------|
|-------------------------------------------------------------------|
                     . .

|------3-2------3-2---------2-3-5---3-5-7-7h8-7---5h7p5-3-5---------|
|-/5----------5----------/5-----------------------------------------|
|-------------------2-----------------------------------------------|
|-------------------------------------------------------------------|
|-------------------------------------------------------------------|
|-------------------------------------------------------------------|

|---3-2-3---3-2-3---3-2-3---3-2-3---3-2-3---3-2-3-----------2-3-5/--|
|-5-------3-------5-------1-------5-------3-----------1-3-5---------|
|-------------------------------------------------2-4---------------|
|-------------------------------------------------------------------|
|-------------------------------------------------------------------|
|-------------------------------------------------------------------|
                                                  . . . . .


harmony section (a little tricky since im not used to tabbing harmonies)

 Gtr.1
|----15-14-15----15-14-15----15-14-15----15-14-15----15-14-15-------|
|-17----------15----------17----------13----------17----------15----|
|-------------------------------------------------------------------|
|-------------------------------------------------------------------|
|-------------------------------------------------------------------|
|-------------------------------------------------------------------|

|-15-14-15----------------14-15-17----------------------------------|
|----------------13-15-17----------17-------------------------------|
|----------14-16----------------------------------------------------|
|-------------------------------------------------------------------|
|-------------------------------------------------------------------|
|-------------------------------------------------------------------|
           .  .  .  .  .
 Gtr.2
|----12-11-12----12-11-12----12-11-12----12-11-12----12-11-12-------|
|-13----------12----------13----------10----------13----------12----|
|-------------------------------------------------------------------|
|-------------------------------------------------------------------|
|-------------------------------------------------------------------|
|-------------------------------------------------------------------|

|-12-11-12---------7-8-10-12-14-15----------------------------------|
|-----------7-8-10--------------------------------------------------|
|-------------------------------------------------------------------|
|-------------------------------------------------------------------|
|-------------------------------------------------------------------|
|-------------------------------------------------------------------|
            . . .  . . .

END

  Visit MetalTabs.com for more metal tablature

bottom separator

Contact Us | Privacy Policy | Disclaimer | Legal Notice
Copyright © 2001-2014 MetalTabs.com. All Rights Reserved.