top separator

Home

Forum

What's New

Submit a Tab

FAQ

Links

Contact Us

Link to Us

MetalTabs.com logo

Bands

0-9

A

B

C

D

E

F

G

H

I

J

K

L

M

N

O

P

Q

R

S

T

U

V

W

X

Y

Z

Search

What

Where
 

Whiplash - "Last Nail In The Coffin" Guitar Tab

Plain Text Version
More Whiplash Tabs

Hits: 2931
Updated: 2007-09-21 03:55:21

 

By:

Arsenal_420

sendpm.gif

email.gif

Important note
We did our best to reach Whiplash and ask for their permission to publish this tab. Unfortunately they did not respond to our requests or we could not find a way to contact them. This tab is available online until Whiplash tells us to take it down.


#----------------------------------PLEASE NOTE---------------------------------#
#This file is the author's own work and represents their interpretation of the #
#song. You may only use this file for private study, scholarship, or research. #
#Unless specified otherwise, this is NOT an official tab from the band members.#
#------------------------------------------------------------------------------#

  Visit MetalTabs.com for more metal tablature
  
Band:  Whiplash
Album: Ticket To Mayhem
Song:  Last Nail In The Coffin

Transcribed By: Gary
e-mail: hyperslob@yahoo.com


.  - palm mute           /  - slide up to
\  - slide down to       ~  - vibrato
h  - hammer on           b  - Bend
p  - pull off            Suffixes for bend
t  - tap                 f  - full bend    h - half bend
ph - pinched harmonic    q  - quarter bend t - tap bend
*  - see comment         ^  - Hold bend    r release bend
x  - Stuccatto           ~  - vibrato bend
,  - slight palm mute    () - ghost note, sustained note
"  - tremolo note        <> - Trill

Tuning E A D G B E

the timing isnt correct but its self explanatory

 Riff A (acoustic Riff)
|-0-----------------------------------------------------------------|
|----------1--------0--------1p0------------------------------------|
|-------2--------2--------2-----2-----------------------------------|
|----2--------2--------2-----------2--------------------------------|
|----------0-----------------0--------------------------------------|
|-0-----------------4-----------------------------------------------|

|-0-----------------------------------------------------------------|
|----------0--------1--------0--------------------------------------|
|-------2--------2--------2--------2--------------------------------|
|----2--------2--------2--------2-----------------------------------|
|-0-----------------------------------------------------------------|
|----------4--------1--------0--------------------------------------|

 Last TIme Riff A
|-0-1-0h1p0-0---0------------------0-----------------0--------------|
|-------------1---0--------1---0-1---1-0-----1-0h1p0-0--------------|
|-----------------------2----2---------------2-------2--------------|
|--------------------2-----------------------2-------2--------------|
|-0-----------------------------------------------------------------|
|-----------------4--------1-----------0----------------------------|



 Riff B with Distortion
 1st time normal
|-------------------------------------------------------------------|
|-------------------------------------------------------------------|
|-------------------------------------------------------------------|
|--------------------------------------------------------7----------|
|-7----7/10--10\7--7\5-5--7-7-------3----------2---------5----------|
|-5----5/8---8-\5--5\3-3--5-5-------1----------0--------------------|

 2nd time only played at 1:03
|-------------------------------------------------------------------|
|-------------------------------------0-------0-------0-------0-----|
|-----------------------------------0-------0-------0-------0-------|
|---------------------------------2-------2-------2-------2---------|
|-7----7/10--10\7--7\5-5--7-7---------------------------3-----------|
|-5----5/8---8-\5--5\3-3--5-5---1-------0-------1-------------------|

 3rd time is same as the first

 4th time is played like this
|-------------------------------------------------------------------|
|-------------------------------------------------------------------|
|---------------------------------7--10-9---12-12/14-14\\\\---------|
|------------------------------8--x--x--x---x--x--x--x--------------|
|-7----7/10--10\7--7\5-5--7-7--x--5--8--7---10-10/12-12\\\\---------|
|-5----5/8---8-\5--5\3-3--5-5--6------------------------------------|



 Then PLay Riff A again



 Then Riff C
|-------------------------------------------------------------------|
|-------------------------------------------------------------------|
|-------------------------------------------------------------------|
|-7---7----------7/10--10-----10\5--5-----------7-----7-------------|
|-7---7----------7/10--10-----10\5--5-----------7-----7-------------|
|-5---5----------5/8---8------8-\3--3-----------5-----5-------------|




 Solo (3:07)  (the timing is hard to type out)
|-------------------------------------------------------------------|
|-------------------------------------------------------------------|
|---------------------------------9--9--9--7-7-5-5-4-5-4---5-4------|
|-7--7--10-10-10-9--9--9---9-10-9------------------------------5----|
|---------------------------------7--7--7--5-5-3-3-2-3-2---3-2------|
|-5--5--8--8--8--7--7--7---7-8--7------------------------------3----|

|-------------------------------------------------------------------|
|-------------------------------------------------------------------|
|-5-4-5-4-5\4---2-4-5-4-5-7-5-7-9-7-9-12-9-12-14--------------------|
|-------------5-----------------------------------------------------|
|-3-2-3-2-3\2---0-2-3-2-3-5-3-5-7-5-7-10-7-10-12////----------------|
|-------------3-----------------------------------------------------|
                " " " " " " " " " " " "  " "  "

|-------------------------------------------------------------------|
|-------------------------------------------------------------------|
|---------------------------------9--9--9/12-12-12/14-14-14-16-17---|
|-7--7--10-10-10-9--9--9---9-10-9-----------------------------------|
|---------------------------------7--7--7/10-10-10/12-12-12-14-15---|
|-5--5--8--8--8--7--7--7---7-8--7-----------------------------------|

|-------------------------------------------------------------------|
|-------------------------------------------------------------------|
|-16/17-17\16-16/17-17\16-17-17\16\14/16/17\16---then here go up and|
|------------------------------------------------down the board-----|
|-14/15-15\14-14/15-15\14-15-15\14\12/14/15\14---1 to 15 down the---|
|------------------------------------------------octave thing-------|

 Then play Riff C 2 more times

 Ending Riff (4:04)
|-------------------------------------------------------------------|
|-------------------------------------------------------------------|
|-------------------------------------------------------------------|
|-------------------------------------------------------------------|
|-0--3-3--2-2--0-0--------2-2--0-0---------0---3-3---2-2---0-0------|
|-------------------3-1-------------3-3--0--------------------------|

|-------------------------------------------------0-----------------|
|-------------------------------------------------1-----------------|
|-------------------------------------------------2-----------------|
|-------------------------------------------------2-----------------|
|------2--2----0-0-0-0----------------------------0-----------------|
|-3-1---------------------3---3---------0---------------------------|


END

  Visit MetalTabs.com for more metal tablature

bottom separator

Contact Us | Privacy Policy | Disclaimer | Legal Notice
Copyright © 2001-2014 MetalTabs.com. All Rights Reserved.