top separator

Home

Forum

What's New

Submit a Tab

FAQ

Links

Contact Us

Link to Us

MuSpy.com

MetalTabs.com logo

Bands

0-9

A

B

C

D

E

F

G

H

I

J

K

L

M

N

O

P

Q

R

S

T

U

V

W

X

Y

Z

Search

What

Where
 

Lifelover - "Herrens Hand" Guitar Tab

Plain Text Version
More Lifelover Tabs

Hits: 2035
Rated: 5.00 out of 5 (3 votes)
Updated: 2007-09-09 03:12:11

 

By:

Carl

sendpm.gif

email.gif

Important note
This tab is available online because we obtained explicit permission from Lifelover or their label.


#----------------------------------PLEASE NOTE---------------------------------#
#This file is the author's own work and represents their interpretation of the #
#song. You may only use this file for private study, scholarship, or research. #
#Unless specified otherwise, this is NOT an official tab from the band members.#
#------------------------------------------------------------------------------#

  Visit MetalTabs.com for more metal tablature
  
Band:  (Lifelover)
Album: (Pulver)
Song:  (Herrens Hand)

Copyright (c)  (GoatowaRex) (2006)

Transcribed By: (Carl(Thesadpartofthestory))
Email:          (Jag_calle__@hotmail.com)


.  - palm mute           /  - slide up to
\  - slide down to       ~  - vibrato
h  - hammer on           b  - Bend
p  - pull off            Suffixes for bend
t  - tap                 f  - full bend    h - half bend
ph - pinched harmonic    q  - quarter bend t - tap bend
*  - see comment         ^  - Hold bend    r release bend
x  - Stuccatto           ~  - vibrato bend
,  - slight palm mute    () - ghost note, sustained note
"  - tremolo note        <> - Trill

Tuning E A D G B E


Intro/Background riff.

First riff.
|-------------------------------------------------------------------|
|-------------------------------------------------------------------|
|-------------------------------------------------------------------|
|-----2----2----2----2----2----2----2----2--------------------------|
|---2----2----2----2----3----3----3----3----------------------------|
|-0----0----0----0----3----3----3----3------------------------------|

Second Riff.

2 guitar.
|------------------------------------------------------------------------------|
|------------------------------------------------------------------------------|
|------------------------------------------------------------------------------|
|-----------------------------2-2-2-2-2-2-2-2-5-5-5-------------5-5-5-4h5p4----|
|---------------------------------------------------3-3-3-3-3-3----------------|
|------------------------------------------------------------------------------|



|------------------------------------------------------------------------------|
|------------------------------------------------------------------------------|
|------------------------------------5-5-5-4h5p4-------------------------------|
|-2-2-2-2-2-2-2-2-5-5-5--------------------------------------------------------|
|------------------------3-3-3-3-3-3-------------------------------------------|
|------------------------------------------------------------------------------|

Third riff


x 4
|---8-7-7-7-7-7-7-7-7-7-7-7-8-7-7-7-7-7-0-0-0-----------------------|
|------------------------------------------------5--------------- --|
|---------------------------------------------7---------------------|
|-------------------------------------------------------------------|
|-------------------------------------------------------------------|
|-------------------------------------------------------------------|


First riff and second riff thogether with piano.




Third riff.



END

  Visit MetalTabs.com for more metal tablature

bottom separator

Contact Us | Privacy Policy | Disclaimer | Legal Notice
Copyright © 2001-2014 MetalTabs.com. All Rights Reserved.