top separator

Home

Forum

What's New

Submit a Tab

FAQ

Links

Contact Us

Link to Us

MetalTabs.com logo

Bands

0-9

A

B

C

D

E

F

G

H

I

J

K

L

M

N

O

P

Q

R

S

T

U

V

W

X

Y

Z

Search

What

Where
 

Toxic Holocaust - "Metal Attack" Guitar Tab

Plain Text Version
More Toxic Holocaust Tabs

Hits: 3163
Rated: 4.00 out of 5 (4 votes)
Updated: 2007-09-09 03:05:36

 

By:

Wolfsherz

sendpm.gif

email.gif

Important note
This tab is available online because we obtained explicit permission from Toxic Holocaust or their label.


#----------------------------------PLEASE NOTE---------------------------------#
#This file is the author's own work and represents their interpretation of the #
#song. You may only use this file for private study, scholarship, or research. #
#Unless specified otherwise, this is NOT an official tab from the band members.#
#------------------------------------------------------------------------------#

  Visit MetalTabs.com for more metal tablature
  
Band:  Toxic Holocaust
Album: Toxic Thrash Metal
Song:  Metal Attack

Copyright (c)  Witches Brew 2003

Transcribed By: Wolfsherz/Jens Cautereels
Email:          cautereels.jens@gmail.com

e ----------------------------------------------------------------
B ----------------------------------------------------------------
G ---------------------10-------7---------------------------------
D -2-2-3-2-2-2-5-2-2-2-10-2-2-2-7---------------------------------
A -2-2-3-2-2-2-5-2-2-2-8--2-2-2-5---------------------------------
E -0-0-1-0-0-0-3-0-0-0----0-0-0----------------------------------- x5
   * *   * * *   * * *    * * *
e ----------------------------------------------------------------
B ----------------------------------------------------------------
G ---------------------10-------7/10------------------------------
D -2-2-3-2-2-2-5-2-2-2-10-2-2-2-7/10-----2------------------------
A -2-2-3-2-2-2-5-2-2-2-8--2-2-2-5/8------2------------------------
E -0-0-1-0-0-0-3-0-0-0----0-0-0----------0------------------------
   * *   * * *   * * *    * * *
e ----------------------------------------------------------------
B ----------------------------------------------------------------
G ----------------------------------------------------------------
D -7-5-7-8------2------2------------------------------------------
A -7-5-7-8------2------2------------------------------------------
E -5-3-5-6-0000-0-0000-0-0000------------------------------------- x4
           ****   ****   ****

e ----------------------------
B ----------------------------
G ----------------------------
D -7-5-7-8----10-9-7----------
A -7-5-7-8----8--7-5----------
E -5-3-5-6--------------------

e ----------------------------------------------------------------
B ----------------------------------------------------------------
G ----------------------------------------------------------------
D -2-------2-------2-------9-10-9-2-------2-------2---------------
A -2-------2-------2-------7-8--7-2-------2-------2-----7-8-7-----
E -0-0-000-0-0-000-0-0-000--------0-0-000-0-0-000-0-000-5-6-5----- x4

e ------
B ------
G -7----
D -7----
A -5----
E ------

e ----------------------------------------------------------------
B ----------------------------------------------------------------
G ----------------------------------------10-10-10-7-7-7----------
D -10-9-99-9999-10-9-99-9999-10-9-99-9999-10-10-10-7-7-7----------
A -10-9-99-9999-10-9-99-9999-10-9-99-9999-8--8--8--5-5-5----------
E -8--7-77-7777-8--7-77-7777-8--7-77-7777------------------------- x4
           ****         ****         ****

e ----------------------------------------------------------------
B ----------------------------------------------------------------
G ----------------------------------------------------------------
D -2-------2-------2-------9-10-9-2-------2-------2---------------
A -2-------2-------2-------7-8--7-2-------2-------2-----7-8-7-----
E -0-0-000-0-0-000-0-0-000--------0-0-000-0-0-000-0-000-5-6-5----- x4

e ------
B ------
G -7----
D -7----
A -5----
E ------

e ----------------------------------------------------------------
B ----------------------------------------------------------------
G ----------------------------------------10-10-10-7-7-7----------
D -10-9-99-9999-10-9-99-9999-10-9-99-9999-10-10-10-7-7-7----------
A -10-9-99-9999-10-9-99-9999-10-9-99-9999-8--8--8--5-5-5----------
E -8--7-77-7777-8--7-77-7777-8--7-77-7777------------------------- x4
           ****         ****         ****

e ------------------------------------------------------------------
B ------------------------------------------------------------------
G -----------------10-----7-------------------------8-7-5-----------
D -3-----5---------10-----7---------3-----5---------------8-7-5-----
A -3-----5---------8------5---------3-----5---------------------8-7-
E -1-0-0-3-0-0-0-0----0-0---0-0-0-0-1-0-0-3-0-0-0-0----------------- x4
     * *   * * * *    * *   * * * *   * *   * * * *
Solo:
Guitar 1:
e ----------------------------------------------------------------
B ----------------------------------------------------------------
G ----------------------------------------------------------------
D -2-------2-------2-------9-10-9-2-------2-------2---------------
A -2-------2-------2-------7-8--7-2-------2-------2-----7-8-7-----
E -0-0-000-0-0-000-0-0-000--------0-0-000-0-0-000-0-000-5-6-5----- x4
Solo end
e ------
B ------
G ------
D -2----
A -2----
E -0----

e ----------------------------------------------------------------
B ----------------------------------------------------------------
G ----------------------------------------------------------------
D -------------5-7----------------5-7-----------------------------
A ---7-----7-------8----7-----7-------8---------------------------
E -0---0-0---0--------0---0-0---0--------------------------------- x2

e ----------------------------------------------------------------
B ----------------------------------------------------------------
G ----------------------------------------------------------------
D -------------5-7----------------5-7-----------------------------
A ---7-----7-------8----7-----7-------8---------------------------
E -0---0-0---0--------0---0-0---0--------------------------------- x2
   *   * *   *        *   * *   *

e ----------------------------------------------------------------
B ----------------------------------------------------------------
G -----------------7-----9----------------------------------------
D -----9-----5-----5-----7-----10---------------------------------
A -----7-----3-----------------8----------------------------------
E -0-0---0-0---0-0---0-0---0-0------------------------------------ x4
   * *   * *   * *   * *   * *

e ----------------------------------------------------------------
B ----------------------------------------------------------------
G ----9---9---9---9---10--9---9-----------------------------------
D ----9---9---9---9---10--9---9----8-8-7-7-5----------------------
A ----7---7---7---7---8---7---7----8-8-7-7-5----------------------
E -000-000-000-000-000--00-000-000-6-6-5-5-3----------------------
Till end

  Visit MetalTabs.com for more metal tablature

bottom separator

Contact Us | Privacy Policy | Disclaimer | Legal Notice
Copyright © 2001-2014 MetalTabs.com. All Rights Reserved.