top separator

Home

Forum

What's New

Submit a Tab

FAQ

Links

Contact Us

Link to Us

MetalTabs.com logo

Bands

0-9

A

B

C

D

E

F

G

H

I

J

K

L

M

N

O

P

Q

R

S

T

U

V

W

X

Y

Z

Search

What

Where
 

Antimatter - "Epitaph" Bass Tab

Plain Text Version
More Antimatter Tabs

Hits: 1997
Updated: 2007-09-09 03:05:22

 

By:

Paddy

sendpm.gif

email.gif

Important note
This tab is available online because we obtained explicit permission from Antimatter or their label.


#----------------------------------PLEASE NOTE---------------------------------#
#This file is the author's own work and represents their interpretation of the #
#song. You may only use this file for private study, scholarship, or research. #
#Unless specified otherwise, this is NOT an official tab from the band members.#
#------------------------------------------------------------------------------#

  Visit MetalTabs.com for more metal tablature
  
================================================================================
                              A N T I M A T T E R

                                       -

                                 E P I T A P H
================================================================================


                              PLANETARY CONFINEMENT
                        (c)  Prophecy Productions - 2005
                        http://www.antimatteronline.com/


                                Standard Tuning
                                    E A D G

                                 Tempo = 105 BPM
                             Time Signature = (Varies)



                          -----------------------------
                                 Transcribed by

                                 PADDY MCMULLAN
                           stinkypoohpants@yahoo.co.uk

                                   Version 1.0
                             -----------------------


        Note: The bass only plays during the last section of this song



================================================================================
Bass Riff
================================================================================


||-------------------|-----------------------|-------------------|
||-------------------|-----------------------|-------------------|
||--5----------------|-(5)-----0--5----5--4--|--2----------------|
||-------------------|-----------------------|-------------------|


|---------------------|-------------------|-----------------------|
|---------------------|-------------------|-----------------------|
|-(2)-----2------4----|-------------------|-----------------------|
|---------------------|--2----------------|-(2)-----0--2----2--0--|


|-------------------|----------------------|-------------------|
|-------------------|----------------------|-------------------|
|-------------------|----------------------|--5----------------|
|--2----------------|-(2)-----2--5----7----|-------------------|


|-----------------------|-------------------|---------------------|
|-----------------------|-------------------|---------------------|
|-(5)-----0--5----5--4--|--2----------------|--2------2------4----|
|-----------------------|-------------------|---------------------|


|-------------------|-----------------------|---------------------|
|-------------------|-----------------------|---------------------|
|-------------------|-----------------------|---------------------|
|--2----------------|-(2)-----0--2----2--0--|--2-----------(2)-0--|



|-----------------------||-------------------|-----------------------|
|-----------------------||-------------------|-----------------------|
|------------------4----||--5----------------|-(5)-----0--5----5--4--|
|--2----2--5--7---------||-------------------|-----------------------|


|-------------------|---------------------|-------------------|
|-------------------|---------------------|-------------------|
|--2----------------|--2------2------4----|-------------------|
|-------------------|---------------------|--2----------------|


|------------------|-------------------|------------------|-------------------|
|------------------|-------------------|------------------|-------------------|
|------------------|-------------------|------------------|-------------------|
|--(2)-------------|--2----------------|--(2)-------------|--2----------------|



|------------------|-------------------|------------------|-------------------|
|------------------|-------------------|------------------|-------------------|
|------------------|-------------------|------------------|-------------------|
|--(2)-------------|--2----------------|--(2)-------------|--(2)--------------|



|-------------------||
|-------------------||
|-------------------||
|--(2)--------------||



================================================================================
End
================================================================================

  Visit MetalTabs.com for more metal tablature

bottom separator

Contact Us | Privacy Policy | Disclaimer | Legal Notice
Copyright © 2001-2014 MetalTabs.com. All Rights Reserved.