top separator

Home

Forum

FAQ

Contact Us

Link to Us

MetalTabs.com logo

Bands

0-9

A

B

C

D

E

F

G

H

I

J

K

L

M

N

O

P

Q

R

S

T

U

V

W

X

Y

Z

Moonspell - "Finisterra" Bass Tab

Plain Text Version
More Moonspell Tabs

Hits: 418
Updated: 2007-09-09 03:02:12

By:


#----------------------------------PLEASE NOTE---------------------------------#
#This file is the author's own work and represents their interpretation of the #
#song. You may only use this file for private study, scholarship, or research. #
#Unless specified otherwise, this is NOT an official tab from the band members.#
#------------------------------------------------------------------------------#

  Visit MetalTabs.com for more metal tablature
  
ARTIST:MOONSPELL
MUSIC:FINISTERRA (MEMORIAL,2006 SPV,TRACK 2,04:08)
BASS PLAYER: WALDEMAR SORYCHTA / AIRES PEREIRA
BASS TABLATURE:NARCISO (PT) GOTHBASS31@VAMPIREFREAKS.COM

RIFF 1
|---------------------------|
|-8-7-7-8-7-7-7-7-5-8---8-7-|
|---------------------7-----|
|---------------------------|

RIFF 2
|---------------------------32-|
|-8-7-7-8-7-7-7-7-5-8---8-7-----|
|---------------------7---------|
|-------------------------------|

RIFF 3
|-5-5-5-5-8-8-7-7-5-5-5-5-8-8-7-7-1-1-1-1-1-1-0-0-0-0-5-5-7-7|
|-------------------------------------------------------------|
|-------------------------------------------------------------|
|-------------------------------------------------------------|

RIFF 4
|-5-5-5-5-8-8-7-7-5-5-5-5-8-8-7-7-1-1-1-1-1-1-0-0-8-8-7-7-5-|
|-----------------------------------------------------------|
|-----------------------------------------------------------|
|-----------------------------------------------------------|

RIFF 5
|-1-1-1-0--------|
|---------5-8----|
|--------------7-|
|----------------|

RIFF 6
|-1-1-1-0--0-0-0-|
|----------------|
|----------------|
|----------------|

RIFF 7
|-3-2-|
|-----|
|-----|
|-----|

RIFF 8
|---------------------------0-0-0-|
|-8-7-7-8-7-7-7-7-5-8---8-7-------|
|---------------------7-----------|
|---------------------------------|

RIFF 9
|-0--7-8-|
|--------|
|--------|
|--------|


RIFF 10
|-3-3-3-3-3-3-3-3-2-2-2-2-2-2-2-2-5-5-5-5-5-5-5-5-7-7-7-7-7-7-7-7-|
|-----------------------------------------------------------------|
|-----------------------------------------------------------------|
|-----------------------------------------------------------------|

RIFF 11
|-0-0-0-0-0-0-0-0-0-0-0-0-0-0-0-0-0-0-0-0-0-0-0-0-0-0-0-0-0-0-|
|-------------------------------------------------------------|
|-------------------------------------------------------------|
|-------------------------------------------------------------|


RIFF 12
|-----------------0-0-0-|
|-8-7-7-8-7-7-7-7-------|
|-----------------------|
|-----------------------|


RIFF 1  3X (00:14)
RIFF 2  1X (00:25)
RIFF 3  1X (00:32)
RIFF 4  1X (00:39)
RIFF 3  2X (00:46)
RIFF 5  3X (00:25)
RIFF 6  1X (01:11)


RIFF 1  4X (01:14)
RIFF 7  2X (01:29)
RIFF 4  1X (01:36)
RIFF 3  2X (01:43)
RIFF 5  3X (01:57)
RIFF 6  1X (02:08)
RIFF 1  3X (02:11)
RIFF 8  1X (02:22)
RIFF 1  4X (02:26)
RIFF 9  4X (02:40)
RIFF 10 4X (02:54)
RIFF 11 3X (03:23)
RIFF 1  3X (03:51)
RIFF 12 1X (04:01)

  Visit MetalTabs.com for more metal tablature

bottom separator

Contact Us | Privacy Policy | Disclaimer
Copyright © 2001-2014 MetalTabs.com. All Rights Reserved.