top separator

Home

Forum

What's New

Submit a Tab

FAQ

Links

Contact Us

Link to Us

MuSpy.com

MetalTabs.com logo

Bands

0-9

A

B

C

D

E

F

G

H

I

J

K

L

M

N

O

P

Q

R

S

T

U

V

W

X

Y

Z

Search

What

Where
 

Burzum - "My Journey to The Stars" Bass Tab

Plain Text Version
More Burzum Tabs

Hits: 3000
Rated: 5.00 out of 5 (2 votes)
Updated: 2007-09-09 03:01:35

 

By:

sendpm.gif

email.gif

Important note
This tab is available online because we obtained explicit permission from Burzum or their label.


#----------------------------------PLEASE NOTE---------------------------------#
#This file is the author's own work and represents their interpretation of the #
#song. You may only use this file for private study, scholarship, or research. #
#Unless specified otherwise, this is NOT an official tab from the band members.#
#------------------------------------------------------------------------------#

  Visit MetalTabs.com for more metal tablature
  
ARTIST: BURZUM
MUSIC: MY JOURNEY TO THE STARS ( BURZUM/ASKE, 1994 MISANTHROPY,TRACK 7 )
BASS PLAYER: VARG VIKERNESS
BASS TAB: NARCISO (PT) Gothbass31@vampirefreaks.com

RIFF 1                        (00:46)
|-0----0----0--3-2-0----3-2-0---0--0--0--0-0-0-0-0-0-0-0-|
|---------------------------------------------------------|
|---------------------------------------------------------|
|---------------------------------------------------------|

RIFF 2
|-6-6-6-6-6-6-6-6-8-8-8-8-8-8-8-8-|
|---------------------------------|
|---------------------------------|
|---------------------------------|

RIFF 3
|-3-3-3-3-8-8-4-4-6-6-6-6-6-6-6-6-|
|---------------------------------|
|---------------------------------|
|---------------------------------|

RIFF 4
|-0--0--0--0--6-|
|---------------|
|---------------|
|---------------|

RIFF 5
|-5-5-5-5-5-5-5-5-6-6-6-6-6-6-6-6-0-0-0-0-0-0-0-0-
2-2-2-2-2-2-2-2-2-2-2-2-6-6-6-6-6-6-6-6-6-6-6-6-6-6-5-5-5-5-
|------------------------------------------------
|------------------------------------------------
|------------------------------------------------

5-5-5-5-6-6-6-6-6-6-6-6-0-0-0-0-0-0-0-0-2-2-2-2-2-
2-2-2-6-6-6-6-6-6-6-6-6-6-6-6-6-5-5-5-5-5-5-5-5-6-6-6-6-6-6-
-------------------------------------------------------------
-------------------------------------------------------------
-------------------------------------------------------------

6-6-0-0-0-0-0-0-0-0-2-2-2-2-2-2-2-2-|
------------------------------------|
------------------------------------|
------------------------------------|

RIFF 6
|-5-5-5-6-6-6-8-6-5-5-5-8-8-8-7-7-7-|
|-----------------------------------|
|-----------------------------------|
|-----------------------------------|

RIFF 7
|-6-6-6-6-----8-8-8-----6-6-6-6-6-6-6-6-8-8-8-8-8-8-8-8-6-6-6-
6-6-6-6-6-8-8-8-8-8-8-8-8-6-6-6-6-6-6-6-6-8-8-8-
|---------6-8-------5-6--------------------------------------|
|------------------------------------------------------------|
|------------------------------------------------------------|

8-8-8-8-8-|
----------|
----------|
----------|

RIFF 8
|-3-3-3-3-3-7-3-5-5-5-5-5-5-5-5-|
|-------------------------------|
|-------------------------------|
|-------------------------------|

RIFF 9
|-1-1-1-1-1-1-1-1-1-1-1-1-1-1-1-1-1-1-1-1-1-1-1-1-1-1--1--1
1--1--------1-4-3-1-|
|----------------------------------------------------------|
|----------------------------------------------------------|
|----------------------------------------------------------|

RIFF 10
|-5-5-5-5-8-8-8-8-3-3-3-3-8-8-8-8-2-2-2-2-2-2-2-2-|
|-------------------------------------------------|
|-------------------------------------------------|
|-------------------------------------------------|

RIFF 11
|-6-6-6-6-4-4-4-4-3-3-3-3-2-2-2-2-|
|---------------------------------|
|---------------------------------|
|---------------------------------|

RIFF 12
|-5-5-5-5-5-5-5-5-7-7-7-7-7-7-7-7-|
|---------------------------------|
|---------------------------------|
|---------------------------------|

RIFF 13
|-4-4-4-8-4-6-6-6-6-6-6-6-6-4-4-4-8-4-6-6-6-6-6-6-6-6-4-4-4-8-
4-6-6-6-6-6-6-6-6-1--------1----1--1-|
|------------------------------------------------------------|
|------------------------------------------------------------|
-------------------------------------------------------------|

RIFF 14
|-2-2-2-1--2-2-2-2-1-1-1-1-1-1-1-1-1-1-2-2-1-1-1-1-1-1-1-1-1-1
-4-4-4-4-4-4-4-4-1-1-1-1-1-1-1-1-2-1-1-1-1-1-1-
|-------------------------------------------------------------
|-------------------------------------------------------------
|-------------------------------------------------------------

-1-1--4-4-4-4-4-4-4-4-1-1-1-1-1-1-1-1-1-1-2-2-1-1-1-1-1-1-1-1-
4-4-4-4-4-4-4-4-1-1-1-1-1-1-1-1-2-3-3-3-3-3-3-3-
--------------------------------------------------------------
--------------------------------------------------------------
--------------------------------------------------------------

3-5-3-3-3-3-3-3-3-3-5-1-1-1-1-1-1-1-1-2-1-1-1-1-1-1-1-1-2-3-3-
3-3-3-3-3-3-5-3-3-3-3-3-3-3-3-5-1-1-1-1-1-1-1-----------------
--------------------------------------------------------------
--------------------------------------------------------------

2-1-1-1-1-1-1-1-1-2-1-1-1-1-1-1-1-1-2-1-1-1-1-1-1-1-1-4-4-4-4-
4-4-4-4-1-1-1-1-1-1-1-1-2-1-1-1-1-1-1-1-1-2-1-1---------------
--------------------------------------------------------------
--------------------------------------------------------------
--------------------------------------------------------------

-1-1-1-1-1-1-2-1-1-1-1-1-1-1-1-4-4-4-4-4-4-4-4-1-1-1-1-1-1-1-1-
2-1-1-1-1-1-1-1-2-1-1-1-1-1-1-1-1---------1----
---------------------------------------------------------------
---------------------------------------------------------------
---------------------------------------------------------------

1----1----1----1----1----1-|
---------------------------|
---------------------------|
---------------------------|

RIFF 1  1X (00:08)
RIFF 2  4X (01:08)
RIFF 3  4X (01:20)
RIFF 4  1X (01:34)
RIFF 5  1X (01:46)
RIFF 6  3X (02:21)
RIFF 7  1X (02:52)
RIFF 8  4X (03:16)
RIFF 9  1X (03:29)
RIFF 10 4X (04:11)
RIFF 11 4X (04:53)
RIFF 12 4X (05:20)
RIFF 13 1X (05:34)
RIFF 14 X  (06:14)

  Visit MetalTabs.com for more metal tablature

bottom separator

Contact Us | Privacy Policy | Disclaimer | Legal Notice
Copyright © 2001-2014 MetalTabs.com. All Rights Reserved.