top separator

Home

Forum

What's New

Submit a Tab

FAQ

Links

Contact Us

Link to Us

MuSpy.com

MetalTabs.com logo

Bands

0-9

A

B

C

D

E

F

G

H

I

J

K

L

M

N

O

P

Q

R

S

T

U

V

W

X

Y

Z

Search

What

Where
 

Blood Freak - "I Rip Your Flesh" Guitar Tab

Plain Text Version
More Blood Freak Tabs

Hits: 1161
Updated: 2007-09-09 03:01:18

 

By:

Malevolence

sendpm.gif

email.gif

Important note
This tab is available online because we obtained explicit permission from Blood Freak or their label.


#----------------------------------PLEASE NOTE---------------------------------#
#This file is the author's own work and represents their interpretation of the #
#song. You may only use this file for private study, scholarship, or research. #
#Unless specified otherwise, this is NOT an official tab from the band members.#
#------------------------------------------------------------------------------#

  Visit MetalTabs.com for more metal tablature
  
Song: I Rip Your Flesh
 Band: Blood Freak
Album: Sleaze Merchants

Transcribed By: Scott Carlin
Email:          the_super_adventures@yahoo.ie

Copyright (c)  2003 Razorback Records
Version 1.0 -  27/07/2007

.  - palm mute           /  - slide up to
\  - slide down to       ~  - vibrato
h  - hammer on           b  - Bend
p  - pull off            Suffixes for bend
t  - tap                 f  - full bend    h - half bend
^ - pinched harmonic     q  - quarter bend t - tap bend
*  - see comment         H  - Hold bend    r release bend
x  - Stuccatto           ~  - vibrato bend
tr - Trill               () - ghost note, sustained note
"  - tremolo note        <> - Natural Harmonic

Tuning: A Standard

Riff 1 x2
||-----------------|----------------|----------------|----------------||
||-----------------|----------------|----------------|----------------||
||-----------------|----------------|----------------|4/5-4/5-4/5-4/5-||
||---------4/5-4/5-|--------4/5-4/5-|--------4/5-4/5-|2/3-2/3-2/3-2/3-||
||-4/5-4/5-2/3-2/3-|4/5-4/5-2/3-2/3-|4/5-4/5-2/3-2/3-|----------------||
||-2/3-2/3---------|2/3-2/3---------|2/3-2/3---------|----------------||

Riff 2 x2
||-----------------|----------------|----------------|----------------||
||-----------------|----------------|----------------|----------------||
||-----------------|----------------|----------------|----------------||
||-5555------------|5555------------|----------------|----------------||
||-----666655556666|----666655556666|4444------------|4444------------||
||-----------------|----------------|----555544445555|----555544445555||

Riff 1 x2
Riff 2 x2

Riff 3 x10
||-----------------|----------------||
||-----------------|----------------||
||-----------------|----------------||
||-----------------|----------------||
||-----------------|----------------||
||-0000111100000000|3333000033443333||
   ................ ................

Ending x1
||----------------||
||----------------||
||----------------||
||----------------||
||-2--------------||
||-0--------------||

END

  Visit MetalTabs.com for more metal tablature

bottom separator

Contact Us | Privacy Policy | Disclaimer | Legal Notice
Copyright © 2001-2014 MetalTabs.com. All Rights Reserved.