top separator

Home

Forum

What's New

Submit a Tab

FAQ

Links

Contact Us

Link to Us

MuSpy.com

MetalTabs.com logo

Bands

0-9

A

B

C

D

E

F

G

H

I

J

K

L

M

N

O

P

Q

R

S

T

U

V

W

X

Y

Z

Search

What

Where
 

Blood Freak - "Grinding Up the Dead" Guitar Tab

Plain Text Version
More Blood Freak Tabs

Hits: 1263
Updated: 2007-09-09 03:01:08

 

By:

Malevolence

sendpm.gif

email.gif

Important note
This tab is available online because we obtained explicit permission from Blood Freak or their label.


#----------------------------------PLEASE NOTE---------------------------------#
#This file is the author's own work and represents their interpretation of the #
#song. You may only use this file for private study, scholarship, or research. #
#Unless specified otherwise, this is NOT an official tab from the band members.#
#------------------------------------------------------------------------------#

  Visit MetalTabs.com for more metal tablature
  
Song: Grinding Up The Dead
 Band: Blood Freak
Album: Sleaze Merchants

Transcribed By: Scott Carlin
Email:          the_super_adventures@yahoo.ie

Copyright (c)  2003 Razorback Records
Version 1.0 -  21/07/2007

.  - palm mute           /  - slide up to
\  - slide down to       ~  - vibrato
h  - hammer on           b  - Bend
p  - pull off            Suffixes for bend
t  - tap                 f  - full bend    h - half bend
^ - pinched harmonic     q  - quarter bend t - tap bend
*  - see comment         H  - Hold bend    r release bend
x  - Stuccatto           ~  - vibrato bend
tr - Trill               () - ghost note, sustained note
"  - tremolo note        <> - Natural Harmonic

Tuning: A Standard

Riff 1 x4
||-----------------|----------------||
||-----------------|----------------||
||-----------------|----------------||
||----7-8-----7-8--|----------------||
||-5--5-6--5--5-6--|9---7-7-9---7-7-||
||-3-------3-------|7---5-5-7---5-5-||


Riff 2a x1
||-----------------|----------------|----------------|----------------||
||-----------------|----------------|----------------|----------------||
||-----------------|----------------|----------------|----------------||
||---------66665555|----------------|--------55554444|----------------||
||-----5555--------|----------------|----4444--------|----------------||
||-3333------------|6677666655665555|3333------------|6677666655665555||
|                                                                      |
|                                                                      |
||-----------------|----------------|----------------|----------------||
||-----------------|----------------|----------------|----------------||
||-----------------|----------------|----------------|----------------||
||-----------------|----------------|----------------|----------------||
||-5---------------|8/9\8---7/8\7---|5---------------|8/9\8---7/8\7---||
||-3---------------|6/7\6---5/6\5---|3---------------|6/7\6---5/6\5---||


Riff 2b x2
||-----------------|----------------|----------------|----------------||
||-----------------|----------------|----------------|----------------||
||-----------------|----------------|----------------|----------------||
||---------66665555|----------------|--------55554444|----------------||
||-----5555--------|----------------|----4444--------|----------------||
||-3333------------|6677666655665555|3333------------|6677666655665555||

Riff 3 x2
||-----------------|----------------|----------------|----------------||
||-----------------|----------------|----------------|----------------||
||-----------------|----------------|----------------|----------------||
||---------5/6\5---|--------4/5\4---|--------5/6\5---|4/5\4---3/4\3---||
||-5/6\5---3/4\3---|4/5\4---2/3\2---|5/6\5---3/4\3---|2/3\2---1/2\1---||
||-3/4\3-----------|2/3\2-----------|3/4\3-----------|----------------||

Riff 2b x2
Riff 3  x2

Ending x1
||-----------------||
||-----------------||
||-----------------||
||-----------------||
||-4---------------||
||-2---------------||

END

  Visit MetalTabs.com for more metal tablature

bottom separator

Contact Us | Privacy Policy | Disclaimer | Legal Notice
Copyright © 2001-2014 MetalTabs.com. All Rights Reserved.