top separator

Home

Forum

What's New

Submit a Tab

FAQ

Links

Contact Us

Link to Us

MetalTabs.com logo

Bands

0-9

A

B

C

D

E

F

G

H

I

J

K

L

M

N

O

P

Q

R

S

T

U

V

W

X

Y

Z

Search

What

Where
 

Blood Freak - "Bloodthirsty Butchers from Beyond" Guitar Tab

Plain Text Version
More Blood Freak Tabs

Hits: 2732
Rated: 5.00 out of 5 (1 vote)
Updated: 2007-09-09 03:00:58

 

By:

Malevolence

sendpm.gif

email.gif

Important note
This tab is available online because we obtained explicit permission from Blood Freak or their label.


#----------------------------------PLEASE NOTE---------------------------------#
#This file is the author's own work and represents their interpretation of the #
#song. You may only use this file for private study, scholarship, or research. #
#Unless specified otherwise, this is NOT an official tab from the band members.#
#------------------------------------------------------------------------------#

  Visit MetalTabs.com for more metal tablature
  
Song: Bloodthirsty Butchers From Beyond
 Band: Blood Freak
Album: Sleaze Merchants

Transcribed By: Scott Carlin
Email:          the_super_adventures@yahoo.ie

Copyright (c)  2003 Razorback Records
Version 1.0 -  21/07/2007

.  - palm mute           /  - slide up to
\  - slide down to       ~  - vibrato
h  - hammer on           b  - Bend
p  - pull off            Suffixes for bend
t  - tap                 f  - full bend    h - half bend
^ - pinched harmonic     q  - quarter bend t - tap bend
*  - see comment         H  - Hold bend    r release bend
x  - Stuccatto           ~  - vibrato bend
tr - Trill               () - ghost note, sustained note
"  - tremolo note        <> - Natural Harmonic

Tuning: A Standard

This tab is for Everett,he requested it a while back, so here
you go Everett, enjoy :)

Riff 1 x4
||-----------------|----------------|----------------|----------------||
||-----------------|----------------|----------------|----------------||
||-----------------|----------------|----------------|----------------||
||-----------------|----------------|----------------|----------------||
||---------223322--|--------223322--|--------223322--|5---5---5---5---||
||-22222222------44|22222222------44|22222222------44|3---3---3---3---||
                                                      .   .   .   .

Riff 2 x2
||-----------------|----------------|----------------|----------------|
||-----------------|----------------|----------------|6-6--6--6-6--6--|
||---------7-7--7--|----------------|--------7-7--7--|----------------|
||-----------------|6-6--6--6-6--6--|----------------|----------------|
||-5-5--5----------|----------------|5-5--5----------|----------------|
||-----------------|----------------|----------------|----------------|

 |-----------------|----------------|----------------|----------------||
 |-----------------|----------------|----------------|----------------||
 |---------7-7--7--|----------------|----------------|----------------||
 |-----------------|6-6--6--6-6--6--|5-5--5--5-5--5--|----------------||
 |-5-5--5----------|----------------|----------------|8-8--8--8-8--8--||
 |-----------------|----------------|----------------|----------------||

Riff 1 x4

END

  Visit MetalTabs.com for more metal tablature

bottom separator

Contact Us | Privacy Policy | Disclaimer | Legal Notice
Copyright © 2001-2014 MetalTabs.com. All Rights Reserved.