top separator

Home

Forum

What's New

Submit a Tab

FAQ

Links

Contact Us

Link to Us

MetalTabs.com logo

Bands

0-9

A

B

C

D

E

F

G

H

I

J

K

L

M

N

O

P

Q

R

S

T

U

V

W

X

Y

Z

Search

What

Where
 

Blood Freak - "Flesheaters from Outerspace" Guitar Tab

Plain Text Version
More Blood Freak Tabs

Hits: 1382
Rated: 5.00 out of 5 (1 vote)
Updated: 2007-09-09 03:00:46

 

By:

Malevolence

sendpm.gif

email.gif

Important note
This tab is available online because we obtained explicit permission from Blood Freak or their label.


#----------------------------------PLEASE NOTE---------------------------------#
#This file is the author's own work and represents their interpretation of the #
#song. You may only use this file for private study, scholarship, or research. #
#Unless specified otherwise, this is NOT an official tab from the band members.#
#------------------------------------------------------------------------------#

  Visit MetalTabs.com for more metal tablature
  
Song: Flesheaters From Outerspace
 Band: Blood Freak
Album: Sleaze Merchants

Transcribed By: Scott Carlin
Email:          the_super_adventures@yahoo.ie

Copyright (c)  2003 Razorback Records
Version 1.0 -  21/07/2007

.  - palm mute           /  - slide up to
\  - slide down to       ~  - vibrato
h  - hammer on           b  - Bend
p  - pull off            Suffixes for bend
t  - tap                 f  - full bend    h - half bend
^ - pinched harmonic     q  - quarter bend t - tap bend
*  - see comment         H  - Hold bend    r release bend
x  - Stuccatto           ~  - vibrato bend
tr - Trill               () - ghost note, sustained note
"  - tremolo note        <> - Natural Harmonic

Tuning: A Standard

Riff 1a x4
||-----------------||
||-----------------||
||-----------------||
||-----------------||
||-------------2222||
||-444433334444----||

Riff 1b x8
||-----------------||
||-----------------||
||-----------------||
||-------------4---||
||-6---5---6---2---||
||-4---3---4-------||

Riff 2a x4
||-----------------|----------------||
||-----------------|----------------||
||-----------------|----------------||
||-----------------|----------------||
||-----------------|----------------||
||-0000000011111111|0000000033333333||

Riff 1b x4

Riff 3 x2 ( Under Solo )
||-----------------|----------------|----------------|----------------|
||-----------------|----------------|----------------|----------------|
||-----------------|----------------|----------------|----------------|
||-----------------|----------------|----------------|------------0h3-|
||-2-2-2-2-3-------|----2-2-4/5-4/5-|2-2-2-2-3-------|----2-2-0h3-----|
||-0-0-0-0-1-------|----0-0-2/3-2/3-|0-0-0-0-1-------|----0-0---------|
   . . . .              . .          . . . .
 |-----------------|----------------|----------------|----------------||
 |-----------------|----------------|----------------|----------------||
 |-----------------|----------------|----------------|----------------||
 |-----------------|----------------|----------------|--------0h3-----||
 |-2-2-2-2-3-------|----2-2-4/5-4/5-|2-2-2-2-3-------|----2-2-----0h3-||
 |-0-0-0-0-1-------|----0-0-2/3-2/3-|0-0-0-0-1-------|----0-0---------||

Riff 1a x4
Riff 1b x4
Riff 2a x4

Riff 2b x4
||-----------------|----------------||
||-----------------|----------------||
||-----------------|----------------||
||-----------------|----------------||
||-2-------3-------|2-------5-------||
||-0-------1-------|0-------3-------||

Ending x1
||-----------------||
||-----------------||
||-----------------||
||-----------------||
||-2---------------||
||-0---------------||

END

  Visit MetalTabs.com for more metal tablature

bottom separator

Contact Us | Privacy Policy | Disclaimer | Legal Notice
Copyright © 2001-2014 MetalTabs.com. All Rights Reserved.