top separator

Home

Forum

What's New

Submit a Tab

FAQ

Links

Contact Us

Link to Us

MuSpy.com

MetalTabs.com logo

Bands

0-9

A

B

C

D

E

F

G

H

I

J

K

L

M

N

O

P

Q

R

S

T

U

V

W

X

Y

Z

Search

What

Where
 

Blood Freak - "Awakening the Beast" Guitar Tab

Plain Text Version
More Blood Freak Tabs

Hits: 1173
Updated: 2007-09-09 03:00:34

 

By:

Malevolence

sendpm.gif

email.gif

Important note
This tab is available online because we obtained explicit permission from Blood Freak or their label.


#----------------------------------PLEASE NOTE---------------------------------#
#This file is the author's own work and represents their interpretation of the #
#song. You may only use this file for private study, scholarship, or research. #
#Unless specified otherwise, this is NOT an official tab from the band members.#
#------------------------------------------------------------------------------#

  Visit MetalTabs.com for more metal tablature
  
Song: Awakening The Beast
 Band: Blood Freak
Album: Sleaze Merchants

Transcribed By: Scott Carlin
Email:          the_super_adventures@yahoo.ie

Copyright (c)  2003 Razorback Records
Version 1.0 -  27/07/2007

.  - palm mute           /  - slide up to
\  - slide down to       ~  - vibrato
h  - hammer on           b  - Bend
p  - pull off            Suffixes for bend
t  - tap                 f  - full bend    h - half bend
^ - pinched harmonic     q  - quarter bend t - tap bend
*  - see comment         H  - Hold bend    r release bend
x  - Stuccatto           ~  - vibrato bend
tr - Trill               () - ghost note, sustained note
"  - tremolo note        <> - Natural Harmonic

Tuning: A Standard

Intro a x3
||-5p2-4p2-5p2-4p2-|7p2-5p2-9p2-7p2-||
||-----------------|----------------||
||-----------------|----------------||
||-----------------|----------------||
||-----------------|----------------||
||-----------------|----------------||

Intro b x4
||-5p2-4p2-7p2-5p2-|9p2-7p2-12p2-11p2-||
||-----------------|------------------||
||-----------------|------------------||
||-----------------|------------------||
||-----------------|------------------||
||-----------------|------------------||

Intro a x4
Intro b x4
Intro a x8

Interlude x1
||-----------------|----------------||
||-----------------|----------------|| *This is played
||-----------------|----------------||  when the guy
||-6~------7~------|6~------5~------||  is talking, Im not
||-----------------|----------------||  even sure if its a
||-----------------|----------------||  guitar that plays this.

Riff 1 x2
||-----------------|----------------|----------------|----------------|
||-----------------|----------------|----------------|----------------|
||-----------------|----------------|----------------|----------------|
||-----------------|----------------|----------------|----------------|
||-----------------|------------5-4-|----------------|----5-4-3-------|
||-3---3---3-3-5~~-|3---3---3-3-----|3---3---3-3-5~~-|3-3-------5~-4~-|

 |-----------------|----------------|----------------|----------------||
 |-----------------|----------------|----------------|----------------||
 |-----------------|----------------|----------------|----------------||
 |-----------------|----------------|----------------|----------------||
 |-----------------|------------6-5-|----------------|----5-4-3-------||
 |-3---3---3-3-5~~-|3---3---3-3-----|3---3---3-3-5~~-|3-3-------5~-4~-||

Riff 2 x2
||-----------------|----------------|----------------|----------------||
||-----------------|----------------|----------------|----------------||
||-----------------|------------3---|----------------|----------------||
||-----------------|--------------5-|----------------|5--5----5--3----||
||-3/5-5-5-5---5-5-|3/5-5-5-5-------|3/5-5-5-5---5-5-|3--3----3--1----||
||-1/3-3-3-3---3-3-|1/3-3-3-3-------|1/3-3-3-3---3-3-|----------------||
       . .     . .      . .              . .     . .
Riff 1 x2
Riff 2 x2

Riff 3 x6 ( Under Solo )
||-----------------|----------------|----------------|----------------||
||-----------------|----------------|----------------|----------------||
||-----------------|----------------|----------------|----------------||
||---------5--5----|--------3--3----|--------5--5----|----------------||
||-5---5-----------|3---3-----------|5---5-----------|8--8----8--6----||
||-3---3-----------|1---1-----------|3---3-----------|6--6----6--4----||

END

  Visit MetalTabs.com for more metal tablature

bottom separator

Contact Us | Privacy Policy | Disclaimer | Legal Notice
Copyright © 2001-2014 MetalTabs.com. All Rights Reserved.