top separator

Home

Forum

What's New

Submit a Tab

FAQ

Links

Contact Us

Link to Us

MuSpy.com

MetalTabs.com logo

Bands

0-9

A

B

C

D

E

F

G

H

I

J

K

L

M

N

O

P

Q

R

S

T

U

V

W

X

Y

Z

Search

What

Where
 

Lifelover - "Nackskott" Guitar Tab

Plain Text Version
More Lifelover Tabs

Hits: 5531
Rated: 4.60 out of 5 (10 votes)
Updated: 2007-09-09 02:55:02

 

By:

Carl

sendpm.gif

email.gif

Important note
This tab is available online because we obtained explicit permission from Lifelover or their label.


#----------------------------------PLEASE NOTE---------------------------------#
#This file is the author's own work and represents their interpretation of the #
#song. You may only use this file for private study, scholarship, or research. #
#Unless specified otherwise, this is NOT an official tab from the band members.#
#------------------------------------------------------------------------------#

  Visit MetalTabs.com for more metal tablature
  
Band:  (Lifelover)
Album: (Pulver)
Song:  (Nackskott)

Copyright (c)  (GoatowaRex) (2006)
Version 1.0 - (DATE)

Transcribed By: (Carl(Thesadpartofthestory))
Email:          (jag_calle__@hotmail.com)


.  - palm mute           /  - slide up to
\  - slide down to       ~  - vibrato
h  - hammer on           b  - Bend
p  - pull off            Suffixes for bend
t  - tap                 f  - full bend    h - half bend
ph - pinched harmonic    q  - quarter bend t - tap bend
*  - see comment         ^  - Hold bend    r release bend
x  - Stuccatto           ~  - vibrato bend
,  - slight palm mute    () - ghost note, sustained note
"  - tremolo note        <> - Trill

Tuning E A D G B E
Intro.
x 8
|-------------------------------------------------------------------|
|-------------------------------------------------------------------|
|---------5---------------------------------------------------------|
|-----2-------5---3---3-------2-------------------------------------|
|-0-0---0---0---0---0---333-3---3-----------------------------------|
|-------------------------------------------------------------------|
  Rynkor,           celluliter,     hängbröst...     mascara
|-------------------------------------------------------------------|
|-------------------------------------------------------------------|
|-5-5-5-5-5-5-5-5--4-4-4-4-4-4-4-4--7-7-7-7-7-7-7-7-5-5-5-5-7-7-7-7-|
|-2-2-2-2-2-2-2-2--2-2-2-2-2-2-2-2--5-5-5-5-5-5-5-5-3-3-3-3-7-7-7-7-|
|-3-3-3-3-3-3-3-3--2-2-2-2-2-2-2-2--5-5-5-5-5-5-5-5-3-3-3-3-5-5-5-5-|
|-------------------------------------------------------------------|
  Falska       leenden ....                .. med mundiarre
|-------------------------------------------------------------------|
|-------------------------------------------------------------------|
|-5-5-5-5-5-5-5-5--4-4-4-4-4-4-4-4--7-7-7-7-7-7-7-7-5-5-5-5-7-7-7-7-|
|-2-2-2-2-2-2-2-2--2-2-2-2-2-2-2-2--5-5-5-5-5-5-5-5-3-3-3-3-7-7-7-7-|
|-3-3-3-3-3-3-3-3--2-2-2-2-2-2-2-2--5-5-5-5-5-5-5-5-3-3-3-3-5-5-5-5-|
|-------------------------------------------------------------------|
 Kassörskan ..
|-------------------------------------------------------------------|
|-------------------------------------------------------------------|
|-5-5-5-5-5-5-5-5--4-4-4-4-4-4-4-4--7-7-7-7-7-7-7-7-5-5-5-5-7-7-7-7-|
|-2-2-2-2-2-2-2-2--2-2-2-2-2-2-2-2--5-5-5-5-5-5-5-5-3-3-3-3-7-7-7-7-|
|-3-3-3-3-3-3-3-3--2-2-2-2-2-2-2-2--5-5-5-5-5-5-5-5-3-3-3-3-5-5-5-5-|
|-------------------------------------------------------------------|

Main Riff.
|-------------------------------------------------------------------|
|-------------------------------------------------------------------|
|---------5---------------------------------------------------------|
|-----2-------5---3---3-------2-------------------------------------|
|-0-0---0---0---0---0---333-3---3-----------------------------------|
|-------------------------------------------------------------------|

Screaming.

Palm Mute each tone.
|---------------------------------------------------------------------|
|---------------------------------------------------------------------|
|---------------------------------------------------------------------|
|--------------------------------3----------------------------3-2-3-2-|
|-2-2-2-2-2-2-2-2-2-2-2-2-2-2-2--1---2-2-2-2-2-2-2-2-2-2-2-2--1-0-1-0-|
|-0-0-0-0-0-0-0-0-0-0-0-0-0-0-0------0-0-0-0-0-0-0-0-0-0-0-0----------|

x2
|-------------------------------------------------------------------|
|-------------------------------------------------------------------|
|-5-5-5-5-5-5-5-5--4-4-4-4-4-4-4-4--7-7-7-7-7-7-7-7-5-5-5-5-7-7-7-7-|
|-2-2-2-2-2-2-2-2--2-2-2-2-2-2-2-2--5-5-5-5-5-5-5-5-3-3-3-3-7-7-7-7-|
|-3-3-3-3-3-3-3-3--2-2-2-2-2-2-2-2--5-5-5-5-5-5-5-5-3-3-3-3-5-5-5-5-|
|-------------------------------------------------------------------|

Palm Mute each tone.
|---------------------------------------------------------------------|
|---------------------------------------------------------------------|
|---------------------------------------------------------------------|
|--------------------------------3----------------------------3-2-3-2-|
|-2-2-2-2-2-2-2-2-2-2-2-2-2-2-2--1---2-2-2-2-2-2-2-2-2-2-2-2--1-0-1-0-|
|-0-0-0-0-0-0-0-0-0-0-0-0-0-0-0------0-0-0-0-0-0-0-0-0-0-0-0----------|

Main riff.

x4
|-------------------------------------------------------------------|
|-------------------------------------------------------------------|
|---------5---------------------------------------------------------|
|-----2-------5---3---3-------2-------------------------------------|
|-0-0---0---0---0---0---333-3---3-----------------------------------|
|-------------------------------------------------------------------|


This is added some times in the outro.
|--------(5)--------------------------------------------------------|
|---------5---------------------------------------------------------|
|---------5---------------------------------------------------------|
|-----2-------5---3---3-------2-------------------------------------|
|-0-0---0---0---0---0---333-3---3-----------------------------------|
|-------------------------------------------------------------------|

  Visit MetalTabs.com for more metal tablature

bottom separator

Contact Us | Privacy Policy | Disclaimer | Legal Notice
Copyright © 2001-2014 MetalTabs.com. All Rights Reserved.