top separator

Home

Forum

What's New

Submit a Tab

FAQ

Links

Contact Us

Link to Us

MuSpy.com

MetalTabs.com logo

Bands

0-9

A

B

C

D

E

F

G

H

I

J

K

L

M

N

O

P

Q

R

S

T

U

V

W

X

Y

Z

Search

What

Where
 

Lifelover - "Stockholm" Guitar Tab

Plain Text Version
More Lifelover Tabs

Hits: 2983
Rated: 5.00 out of 5 (2 votes)
Updated: 2007-09-09 02:54:21

 

By:

Carl

sendpm.gif

email.gif

Important note
This tab is available online because we obtained explicit permission from Lifelover or their label.


#----------------------------------PLEASE NOTE---------------------------------#
#This file is the author's own work and represents their interpretation of the #
#song. You may only use this file for private study, scholarship, or research. #
#Unless specified otherwise, this is NOT an official tab from the band members.#
#------------------------------------------------------------------------------#

  Visit MetalTabs.com for more metal tablature
  
Band:  (Lifelover)
Album: (Pulver)
Song:  (Stockholm)

Copyright (c)  (GoatowaRex) (2006)

Transcribed By: (Carl(Thesadpartofthestory))
Email:          (jag_calle__@hotmail.com)


.  - palm mute           /  - slide up to
\  - slide down to       ~  - vibrato
h  - hammer on           b  - Bend
p  - pull off            Suffixes for bend
t  - tap                 f  - full bend    h - half bend
ph - pinched harmonic    q  - quarter bend t - tap bend
*  - see comment         ^  - Hold bend    r release bend
x  - Stuccatto           ~  - vibrato bend
,  - slight palm mute    () - ghost note, sustained note
"  - tremolo note        <> - Trill

Tuning E A D G B E


Intro Riff.
x2
|-------------------------------------------------------------------|
|-------------------------------------------------------------------|
|-------------------------------------------------------------------|
|-------------------------------------------------------------------|
|-----3---3--------3---3--------2---2--------2---2------------------|
|-0-0---0---0--0-0---0---0--0-0---0---0--0-0---0---0----------------|


|----------------------------------------------------------------------------|
|----------------------------------------------------------------------------|
|----------------------------------------------------------------------------|
|-12 12-12-12-12-12-12-12-12-12-12-10-10-9-9-2-2-2-2-2-2-2-2-9-9-9-9-9-9-9---|
|----------------------------------------------------------------------------|
|----------------------------------------------------------------------------|

|----------------------------------------------------------------------------|
|----------------------------------------------------------------------------|
|----------------------------------------------------------------------------|
|-12 12-12-12-12-12-12-12-12-12-12-10-10-9-9-2-2-2-2-2-2-2-2-5-5-5-5-5-5-5-5-|
|----------------------------------------------------------------------------|
|----------------------------------------------------------------------------|


|----------------------------------------------------------------------------|
|----------------------------------------------------------------------------|
|----------------------------------------------------------------------------|
|-12 12-12-12-12-12-12-12-12-12-12-10-10-9-9-2-2-2-2-2-2-2-2-9-9-9-9-9-9-9---|
|----------------------------------------------------------------------------|
|----------------------------------------------------------------------------|


|----------------------------------------------------------------------------|
|----------------------------------------------------------------------------|
|----------------------------------------------------------------------------|
|-12 12-12-12-12-12-12-12-12-12-12-10-10-9-9-2-2-2-2-2-2-2-2-5-5-5-5-5-5-5-5-|
|----------------------------------------------------------------------------|
|----------------------------------------------------------------------------|



x2
|-----------------------------------------------------------------------------|
|-11 11-11-11-11-11-11-11-11-11-11-11-8-8-7-7-0-0-0-0-0-0-0-0-0-0-0-0-0-0-0-0-|
|-----------------------------------------------------------------------------|
|-----------------------------------------------------------------------------|
|-----------------------------------------------------------------------------|
|-----------------------------------------------------------------------------|


 Vers.
 x alot.
|-----------------------------------------------------------------------------|
|-----------------------------------------------------------------------------|
|-----------------------------------------------------------------------------|
|-----------------------------------------------------------------------------|
|-----------------------------------------------------------------------------|
|-3-3-3-3-3-3-3-3-3-3-3-3-3-3-3-3-2-2-2-2-2-2-2-2-7-7-7-7-10-10-10-10---------|
|-----------------------------------------------------------------------------|

 Tomma blickar...
|-------------------------------------------------------------------|
|-------------------------------------------------------------------|
|-------------------------------------------------------------------|
|-------------------------------------------------------------------|
|-----3---3--------3---3--------2---2--------2---2------------------|
|-0-0---0---0--0-0---0---0--0-0---0---0--0-0---0---0----------------|

|-----------------------------------------------------------------------------|
|-11 11-11-11-11-11-11-11-11-11-11-11-8-8-7-7-0-0-0-0-0-0-0-0-0-0-0-0-0-0-0-0-|
|-----------------------------------------------------------------------------|
|-----------------------------------------------------------------------------|
|-----------------------------------------------------------------------------|
|-----------------------------------------------------------------------------|

|----------------------------------------------------------------------------|
|----------------------------------------------------------------------------|
|----------------------------------------------------------------------------|
|-12 12-12-12-12-12-12-12-12-12-12-10-10-9-9-2-2-2-2-2-2-2-2-9-9-9-9-9-9-9---|
|----------------------------------------------------------------------------|
|----------------------------------------------------------------------------|

Dist.

|----------------------------------------------------------------------------|
|----------------------------------------------------------------------------|
|----------------------------------------------------------------------------|
|4-4-4-4-4-4-4-4-5-5-5-5-5-5-5-5-2-------2-------2-------2-------------------|
|2-2-2-2-2-2-2-2-3-3-3-3-3-3-3-3-2-2 2 2-2-2-2-2-2-2-2-2-2-2-2-2----------- -|
|--------------------------------0-0 0 0-0-0-0-0-0-0-0-0-0-0-0-0-------------|

Clean.

|----------------------------------------------------------------------------|
|----------------------------------------------------------------------------|
|----------------------------------------------------------------------------|
|4-4-4-4-4-4-4-4-5-5-5-5-5-5-5-5-2-------2-------2-------2-------------------|
|2-2-2-2-2-2-2-2-3-3-3-3-3-3-3-3-2-2 2 2-2-2-2-2-2-2-2-2-2-2-2-2----------- -|
|--------------------------------0-0 0 0-0-0-0-0-0-0-0-0-0-0-0-0-------------|

|----------------------------------------------------------------------------|
|----------------------------------------------------------------------------|
|----------------------------------------------------------------------------|
|4-4-4-4-4-4-4-4-5-5-5-5-5-5-5-5-9-9-9-9-------------------------------------|
|2-2-2-2-2-2-2-2-3-3-3-3-3-3-3-3-7-7-7-7--------------------------------- ---|
|-----------------------------------------0-0-0-0-0-0-0-0--------------------|

  Visit MetalTabs.com for more metal tablature

bottom separator

Contact Us | Privacy Policy | Disclaimer | Legal Notice
Copyright © 2001-2014 MetalTabs.com. All Rights Reserved.