top separator

Home

Forum

What's New

Submit a Tab

FAQ

Links

Contact Us

Link to Us

MuSpy.com

MetalTabs.com logo

Bands

0-9

A

B

C

D

E

F

G

H

I

J

K

L

M

N

O

P

Q

R

S

T

U

V

W

X

Y

Z

Search

What

Where
 

Septicopyemia - "Rectoscope" Guitar Tab

Plain Text Version
More Septicopyemia Tabs

Hits: 1308
Rated: 5.00 out of 5 (1 vote)
Updated: 2007-09-09 02:52:33

 

By:

goatman

sendpm.gif

email.gif

Important note
This tab is available online because we obtained explicit permission from Septicopyemia or their label.


#----------------------------------PLEASE NOTE---------------------------------#
#This file is the author's own work and represents their interpretation of the #
#song. You may only use this file for private study, scholarship, or research. #
#Unless specified otherwise, this is NOT an official tab from the band members.#
#------------------------------------------------------------------------------#

  Visit MetalTabs.com for more metal tablature
  
Band:  (SEPTICOPYEMIA)
Album: (VOMITING SWAMP)
Song:  (RECTOSCOPE)

Copyright (c)  (UKRAGH PRODUCTIONS) (2006)

Transcribed By: (GOATMAN)
Email:          (VIRUS010891@AOL.COM)


.  - palm mute     *  - doubled guitars during mainly single guitar parts

()  - sustained      h  - half step bend


Tuning: B Standard
                 x2                x2                x8
|-----------------|-----------------|-----------------|------------------
|.---------------.|.---------------.|.---------------.|.-----------------
|-----------------|-----------------|-----------------|------------------
|-----------------|-----------------|-----------------|------------------
|.-4--5--7-7-8-8-.|.-4--5--7-7-8-8-.|.-4--5--7-7-8-8-.|.-7--7--8-7--7--5-
|--2--3--5-5-6-6--|--2--3--5-5-6-6--|--2--3--5-5-6-6--|--5--5--6-5--5--3-
   .  .              .  .              .  .  . . . .
   *                 *  *
                 x4                                  x4                x2
------------------|-----------------------------------|-----------------|
-----------------.|.---------------------------------.|.---------------.|
------------------|-----------------------------------|-----------------|
------------------|-----------------------------------|-----------------|
-4--4--5-4--4--5-.|.-7--7--8-7--7--5-4--4--5-4--4--5-.|.-4--5--7-7-8-8-.|
-2--2--3-2--2--3--|--5--5--6-5--5--3-2--2--3-2--2--3--|--2--3--5-5-6-6--|
                     .  .  . .  .  . .  .  . .  .  .     .  .
                                                         *
                 x2                x4 (bend gradually up and back down)
|-----------------|-----------------|-------------------
|.---------------.|.---------------.|-------------------
|-----------------|-----------------|-------------------
|-----------------|-----------------|-------------------
|.-4--5--7-7-8-8-.|.-4--5--7-7-8-8-.|-------------------
|--2--3--5-5-6-6--|--2--3--5-5-6-6--|-------2h----------
   .  .  . . . .     .  .
   *  *


    -----------------------------------------------------
    -----------------------------------------------------
Gtr -----------------------------------------------------
 1  -----------------------------------------------------
    ---4---5----3--4---5----3--4---5----3--4---5----3----
    ---2---3--0-1--2---3--0-1--2---3--0-1--2---3--0-1----
    |         .           .           .           .     |
    |                                                   |
    |                                                   |
    -----------------------------------------------------
    -----------------------------------------------------
Gtr -----------------------------------------------------
 2  -----------------------------------------------------
    --4-----------------------(4)------------------------
    --2-----------------------(2)------------------------

              x4               x8                  x8               x8
|--------------|----------------|-------------------|----------------|
|.------------.|.--------------.|.-----------------.|.--------------.|
|--------------|----------------|-------------------|----------------|
|--------------|----------------|-------------------|----------------|
|.-4---5----3-.|.-------5----3-.|.-4-4-4-5-5-2-3-3-.|.-------5----3-.|
|--2---3--0-1--|--2~--2-3-0--1--|--2-2-2-3-3-0-1-1--|--2~--2-3-0--1--|
          .               .        . . . . . . . .             .
                   x8
|-------------------|---
|.-----------------.|---
|-------------------|---
|-------------------|---
|.-4-4-4-5-5-2-3-3-.|-4--
|--2-2-2-3-3-0-1-1--|-2--
   . . . . . . . .    .

  Visit MetalTabs.com for more metal tablature

bottom separator

Contact Us | Privacy Policy | Disclaimer | Legal Notice
Copyright © 2001-2014 MetalTabs.com. All Rights Reserved.