top separator

Home

Forum

What's New

Submit a Tab

FAQ

Links

Contact Us

Link to Us

MetalTabs.com logo

Bands

0-9

A

B

C

D

E

F

G

H

I

J

K

L

M

N

O

P

Q

R

S

T

U

V

W

X

Y

Z

Search

What

Where
 

Circle Of Dead Children - "A Wooden Heart Never Bleeds" Guitar Tab

Plain Text Version
More Circle Of Dead Children Tabs

Hits: 1618
Updated: 2007-09-09 02:52:09

 

By:

goatman

sendpm.gif

email.gif

Important note
This tab is available online because we obtained explicit permission from Circle Of Dead Children or their label.


#----------------------------------PLEASE NOTE---------------------------------#
#This file is the author's own work and represents their interpretation of the #
#song. You may only use this file for private study, scholarship, or research. #
#Unless specified otherwise, this is NOT an official tab from the band members.#
#------------------------------------------------------------------------------#

  Visit MetalTabs.com for more metal tablature
  
Band:  (CIRCLE OF DEAD CHILDREN)
Album: (EXOTIC SENSE DECAY)
Song:  (A WOODEN HEART NEVER BLEEDS)

Copyright (c)  (WILLOWTIP RECORDS) (2000)

Transcribed By: (GOATMAN)
Email:          (VIRUS010891@AOL.COM)


.  - palm mute           /  - slide up to        "  - tremolo
()  - sustained note/chord


Tuning: Bb Standard
                                    x4
|------------------------------------|---------------------------------------
|.----------------------------------.|.--------------------------------------
|------------------------------------|---------------------------------------
|------------6"-----------6"-----6"--|--5/8---------------5/8----------------
|.----------------------------------.|.-4/7---------------4/7----------------
|--33-3-22-2---33-3-22-2----33-3-----|------00-0-00-0-0-0-----00-0-00-0-0-0--
   .. . .. .   .. . .. .    .. .            .. . .. . . .     .. . .. . . .

                           x2                                   x6
----------------------------|------------------------------------|
---------------------------.|.----------------------------------.|
----------------------------|------------------88--88--88--88----|
-5/8---------------4/7-4/7--|--88--88--88--88----77--77--77--77--|
-4/7---------------3/6-3/6-.|.---77--77--77--77-----------------.|
-----00-0-00-0-0-0----------|------------------------------------|
     .. . .. . . .
           x2
|-----------|-----------------------------------
|.---------.|-----------------------------------
|-----------|-----------------88--88--88--88----
|-----------|-88--88--88--88----77--77--77--77--
|.---(2)---.|---77--77--77--77------------------
|----(0)----|-----------------------------------

  Visit MetalTabs.com for more metal tablature

bottom separator

Contact Us | Privacy Policy | Disclaimer | Legal Notice
Copyright © 2001-2014 MetalTabs.com. All Rights Reserved.