top separator

Home

Forum

What's New

Submit a Tab

FAQ

Links

Contact Us

Link to Us

MetalTabs.com logo

Bands

0-9

A

B

C

D

E

F

G

H

I

J

K

L

M

N

O

P

Q

R

S

T

U

V

W

X

Y

Z

Search

What

Where
 

Circle Of Dead Children - "Pigeon vs. Crow" Guitar Tab

Plain Text Version
More Circle Of Dead Children Tabs

Hits: 1676
Updated: 2007-09-09 02:51:54

 

By:

goatman

sendpm.gif

email.gif

Important note
This tab is available online because we obtained explicit permission from Circle Of Dead Children or their label.


#----------------------------------PLEASE NOTE---------------------------------#
#This file is the author's own work and represents their interpretation of the #
#song. You may only use this file for private study, scholarship, or research. #
#Unless specified otherwise, this is NOT an official tab from the band members.#
#------------------------------------------------------------------------------#

  Visit MetalTabs.com for more metal tablature
  
Band:  (CIRCLE OF DEAD CHILDREN)
Album: (EXOTIC SENSE DECAY)
Song:  (PIDGEON VS. CROW)

Copyright (c)  (WILLOWTIP RECORDS) (2000)

Transcribed By: (GOATMAN)
Email:          (VIRUS010891@AOL.COM)


.  - palm mute           "  - tremolo


Tuning: Bb Standard
                                            x4                      x4
|--------------------------------------------|-----------------------|
|.------------------------------------------.|.---------------------.|
|--------------------------------------------|-----------------------|
|-------(12)"------(10)"-----(7)"------(7)"--|-------7"-6"-(3)"------|
|.-(9)"-(10)"-(7)"-(8)"-(4)"-(5)"-(4)"-(5)"-.|.-(5)"----------------.|
|--(7)"-------(5)"------(2)"------(2)"-------|-----------------------|

                                                                   x2
|-------------------------------------------------------------------|
|.-----------------------------------------------------------------.|
|-------------------------------------------------------------------|
|-------------------------------------------------------------------|
|.-3--3--3-3-3-5-2-3--3--3-3-3-5-2-3--3--3-3-3-5-2-3--3--3-(5)"----.|
|--1--1--1-1-1-3-0-1--1--1-1-1-3-0-1--1--1-1-1-3-0-1--1--1-(4)"-----|

                                                                              x2
|------------------------------------------------------------------------------|
|.----------------------------------------------------------------------------.|
|------------------------------------------------------------------------------|
|------------------------------------------------------------------------------|
|.-33-3-33-3-33-3-55-2-33-3-33-3-33-3-55-2-33-3-33-3-33-3-55-2-33-3-33-3-(5)"-.|
|--11-1-11-1-11-1-33-0-11-1-11-1-11-1-33-0-11-1-11-1-11-1-33-0-11-1-11-1-(4)"--|
   .. . .. . .. . .. . .. . .. . .. . .. . .. . .. . .. . .. . .. . .. .

                  x3                                                 x2
------|------------|--------------------------------------------------|
------|.----------.|.------------------------------------------------.|
------|------------|--------------------------------------------------|
-(6)--|--(10)-(6)--|--------------------------------------------------|
-(5)--|.--(8)-(4)-.|.-8--8-8--8--8-8--8--8-8-8-8-8-8--9--9-9--9-(11)-.|
-(4)--|------------|--6--6-6--6--6-6--6--6-6-6-6-6-6--7--7-7--7--(9)--|
                         . .     . .     . . . . . .     . .

                      x2                                       x3
|----------------------|--------------|-------------------------|-----
|.--------------------.|--------------|.-----------------------.|-----
|----------------------|--------------|-------------------------|-----
|----------------------|--------------|-------------------------|-----
|.-(8)"---(9)"--(11)"-.|--(8)--5-4-2--|.-(3)--5-4-2-(3)--5-4-2-.|--3--
|--(6)"---(7)"---(9)"--|--(6)--3-2-0--|--(1)--3-2-0-(1)--3-2-0--|--1--
                               . . .      .   . . .      . . .     .

  Visit MetalTabs.com for more metal tablature

bottom separator

Contact Us | Privacy Policy | Disclaimer | Legal Notice
Copyright © 2001-2014 MetalTabs.com. All Rights Reserved.